 0
SECTION
 2
HEADER
 9
$ACADVER
 1
AC1006
 9
$EXTMAX
 10
19816.0273437500
 20
25099.0097656250
 9
$EXTMIN
 10
-114.8284072876
 20
-99999997952.0000000
 9
$LIMMAX
 10
19816.0273437500
 20
25099.0097656250
 9
$LIMMIN
 10
-114.8284072876
 20
-99999997952.0000000
 9
$GRIDUNIT
 10
0.5000000000
 20
0.5000000000
 9
$SNAPBASE
 10
0.0000000000
 20
0.0000000000
 9
$GRIDMODE
 70
0
 9
$SNAPANG
 50
0.0000000000
 9
$REGENMODE
 70
1
 9
$FILLMODE
 70
1
 9
$ORTHOMODE
 70
0
 9
$QTEXTMODE
 70
0
 9
$DRAGMODE
 70
2
 9
$LTSCALE
 40
1.0000000000
 9
$AUNITS
 70
1
 9
$AUPREC
 70
4
 9
$AXISMODE
 70
0
 9
$BLIPMODE
 70
1
 9
$CELTYPE
 6
BYLAYER
 9
$TEXTSTYLE
 7
STANDARD
 9
$CHAMFERA
 40
0.0000000000
 9
$CHAMFERB
 40
0.0000000000
 0
ENDSEC
 0
SECTION
 2
TABLES
 0
TABLE
 2
LTYPE
 70
6
  0
LTYPE
 2
CONTINUOUS
 70
64
 3
Solid line
 72
65
 73
0
 40
0.0000000000
  0
LTYPE
 2
DASHED
 70
64
 3
__ __ __ __ __ __ __ __ __ __ __ __ __ __ __
 72
65
 73
2
 40
0.7500000000
 49
-0.2500000000
 49
0.5000000000
  0
LTYPE
 2
CENTER
 70
64
 3
____ _ ____ _ ____ _ ____ _ ____ _ ____ _ ____
 72
65
 73
4
 40
2.0000000000
 49
-0.2500000000
 49
0.2500000000
 49
-0.2500000000
 49
1.2500000000
  0
LTYPE
 2
PHANTOM
 70
64
 3
_____ _ _ _____ _ _ _____ _ _ _____ _ _ _____
 72
65
 73
6
 40
2.5000000000
 49
-0.2500000000
 49
0.2500000000
 49
-0.2500000000
 49
0.2500000000
 49
-0.2500000000
 49
1.2500000000
  0
LTYPE
 2
DOT
 70
64
 3
...............................................
 72
65
 73
2
 40
0.2500000000
 49
-0.2500000000
 49
0.0000000000
  0
LTYPE
 2
DASH-DOT
 70
64
 3
__ . __ . __ . __ . __ . __ . __ . __ . __ . __
 72
65
 73
4
 40
1.0000000000
 49
-0.2500000000
 49
0.0000000000
 49
-0.2500000000
 49
0.5000000000
 0
ENDTAB
 0
TABLE
 2
LAYER
 70
4
 0
LAYER
 2
0
 70
0
 62
7
 6
CONTINUOUS
 0
LAYER
 2
VUE_1
 70
0
 62
7
 6
CONTINUOUS
 0
LAYER
 2
VUE_2
 70
0
 62
7
 6
CONTINUOUS
 0
LAYER
 2
COTES
 70
0
 62
7
 6
CONTINUOUS
 0
ENDTAB
 0
TABLE
 2
STYLE
 70
1
 0
STYLE
 2
STANDARD
 70
0
 40
0.0000000000
 41
1.0000000000
 50
0.0000000000
 71
0
 42
0.2000000000
 3
MONOTXT
 4

 0
ENDTAB
 0
ENDSEC
 0
SECTION
 2
BLOCKS
 0
ENDSEC
 0
SECTION
 2
ENTITIES
 0
CIRCLE
 8
VUE_1
 6
PHANTOM
 10
9699.2228261443
 20
19589.2572048536
 40
270.0000000000
 0
ARC
 8
VUE_1
 62
5
 10
9736.1590960521
 20
19823.1376052273
 40
270.0000000000
 50
307.7213773045
 51
259.2668450802
 0
POINT
 8
VUE_1
 10
7676.3198110944
 20
21295.5630414974
 0
POINT
 8
VUE_1
 10
17696.0381448873
 20
9015.2292680934
 0
POINT
 8
VUE_1
 10
16384.6119666912
 20
6616.2704884980
 0
POINT
 8
VUE_1
 10
16496.2482349958
 20
6611.1657406024
 0
POINT
 8
VUE_1
 10
16666.7727936084
 20
6673.2816014243
 0
POINT
 8
VUE_1
 10
16964.3410967866
 20
7100.8136579728
 0
POINT
 8
VUE_1
 10
16847.2296700890
 20
6852.7960729665
 0
POINT
 8
VUE_1
 10
17058.4661488040
 20
7392.2037787533
 0
POINT
 8
VUE_1
 10
17088.1320728452
 20
7694.3501186759
 0
POINT
 8
VUE_1
 10
17093.7332212031
 20
7995.5969633456
 0
POINT
 8
VUE_1
 10
17026.2103096669
 20
8306.6602151157
 0
POINT
 8
VUE_1
 10
16851.7905068231
 20
8594.9033989597
 0
POINT
 8
VUE_1
 10
16643.4013282201
 20
8775.4358694194
 0
POINT
 8
VUE_1
 10
16468.4574071219
 20
8863.4810843094
 0
POINT
 8
VUE_1
 10
16472.8209685358
 20
6853.7762748944
 0
POINT
 8
VUE_1
 10
16147.1238919874
 20
7078.8907116951
 0
POINT
 8
VUE_1
 10
16195.6111817570
 20
6849.6895259162
 0
POINT
 8
VUE_1
 10
16152.8006343243
 20
7409.0122634255
 0
POINT
 8
VUE_1
 10
16012.3173767512
 20
7424.7799978891
 0
POINT
 8
VUE_1
 10
15573.0340727267
 20
8748.4006889456
 0
POLYLINE
 8
VUE_1
 66
1
 0
VERTEX
 8
VUE_1
 10
16472.8209685358
 20
6853.7762748944
 0
VERTEX
 8
VUE_1
 10
16468.4574071219
 20
8863.4810843094
 0
SEQEND
 0
POLYLINE
 8
VUE_1
 66
1
 0
VERTEX
 8
VUE_1
 10
16847.2296700890
 20
6852.7960729665
 0
VERTEX
 8
VUE_1
 10
16195.6111817570
 20
6849.6895259162
 0
SEQEND
 0
POLYLINE
 8
VUE_1
 66
1
 0
VERTEX
 8
VUE_1
 10
16384.6119666912
 20
6616.2704884980
 0
VERTEX
 8
VUE_1
 10
16366.4208431777
 20
8858.9357318585
 0
SEQEND
 0
POLYLINE
 8
VUE_1
 66
1
 0
VERTEX
 8
VUE_1
 10
16012.3173767512
 20
7424.7799978891
 0
VERTEX
 8
VUE_1
 10
15573.0340727267
 20
8748.4006889456
 0
SEQEND
 0
POLYLINE
 8
VUE_1
 66
1
 0
VERTEX
 8
VUE_1
 10
16317.3187223788
 20
8853.2893002107
 0
VERTEX
 8
VUE_1
 10
16323.1236132303
 20
7417.9112899573
 0
SEQEND
 0
POLYLINE
 8
VUE_1
 66
1
 0
VERTEX
 8
VUE_1
 10
16147.1238919874
 20
7078.8907116951
 0
VERTEX
 8
VUE_1
 10
16147.2330119804
 20
7067.2096171548
 0
VERTEX
 8
VUE_1
 10
16147.6181183498
 20
7055.5894464653
 0
VERTEX
 8
VUE_1
 10
16148.2738316907
 20
7044.0239234627
 0
VERTEX
 8
VUE_1
 10
16149.1947725982
 20
7032.5067719835
 0
VERTEX
 8
VUE_1
 10
16150.3755616674
 20
7021.0317158639
 0
VERTEX
 8
VUE_1
 10
16151.8108194932
 20
7009.5924789403
 0
VERTEX
 8
VUE_1
 10
16153.4951666709
 20
6998.1827850489
 0
VERTEX
 8
VUE_1
 10
16155.4232237955
 20
6986.7963580261
 0
VERTEX
 8
VUE_1
 10
16157.5896114621
 20
6975.4269217082
 0
VERTEX
 8
VUE_1
 10
16159.9889502657
 20
6964.0681999314
 0
VERTEX
 8
VUE_1
 10
16162.6158608014
 20
6952.7139165321
 0
VERTEX
 8
VUE_1
 10
16165.4649636643
 20
6941.3577953467
 0
VERTEX
 8
VUE_1
 10
16168.5308794496
 20
6929.9935602113
 0
VERTEX
 8
VUE_1
 10
16171.8082287522
 20
6918.6149349623
 0
VERTEX
 8
VUE_1
 10
16175.2916321672
 20
6907.2156434360
 0
VERTEX
 8
VUE_1
 10
16178.9757102898
 20
6895.7894094688
 0
VERTEX
 8
VUE_1
 10
16182.8550837150
 20
6884.3299568969
 0
VERTEX
 8
VUE_1
 10
16186.9243730378
 20
6872.8310095566
 0
VERTEX
 8
VUE_1
 10
16191.1781988535
 20
6861.2862912843
 0
VERTEX
 8
VUE_1
 10
16195.6111817570
 20
6849.6895259162
 0
SEQEND
 0
POLYLINE
 8
VUE_1
 66
1
 0
VERTEX
 8
VUE_1
 10
16195.6111817570
 20
6849.6895259162
 0
VERTEX
 8
VUE_1
 10
16201.5516817019
 20
6834.7487915173
 0
VERTEX
 8
VUE_1
 10
16207.7897694391
 20
6819.7750627293
 0
VERTEX
 8
VUE_1
 10
16214.3374178682
 20
6804.8312032229
 0
VERTEX
 8
VUE_1
 10
16221.2065998887
 20
6789.9800766686
 0
VERTEX
 8
VUE_1
 10
16228.4092884002
 20
6775.2845467372
 0
VERTEX
 8
VUE_1
 10
16235.9574563022
 20
6760.8074770990
 0
VERTEX
 8
VUE_1
 10
16243.8630764943
 20
6746.6117314248
 0
VERTEX
 8
VUE_1
 10
16252.1381218760
 20
6732.7601733852
 0
VERTEX
 8
VUE_1
 10
16260.7945653470
 20
6719.3156666506
 0
VERTEX
 8
VUE_1
 10
16269.8443798068
 20
6706.3410748918
 0
VERTEX
 8
VUE_1
 10
16279.2995381549
 20
6693.8992617793
 0
VERTEX
 8
VUE_1
 10
16289.1720132909
 20
6682.0530909837
 0
VERTEX
 8
VUE_1
 10
16299.4737781144
 20
6670.8654261755
 0
VERTEX
 8
VUE_1
 10
16310.2168055249
 20
6660.3991310255
 0
VERTEX
 8
VUE_1
 10
16321.4130684220
 20
6650.7170692041
 0
VERTEX
 8
VUE_1
 10
16333.0745397053
 20
6641.8821043820
 0
VERTEX
 8
VUE_1
 10
16345.2131922743
 20
6633.9571002297
 0
VERTEX
 8
VUE_1
 10
16357.8409990286
 20
6627.0049204179
 0
VERTEX
 8
VUE_1
 10
16370.9699328677
 20
6621.0884286172
 0
VERTEX
 8
VUE_1
 10
16384.6119666912
 20
6616.2704884980
 0
SEQEND
 0
POLYLINE
 8
VUE_1
 66
1
 0
VERTEX
 8
VUE_1
 10
16384.6119666912
 20
6616.2704884980
 0
VERTEX
 8
VUE_1
 10
16389.8204538724
 20
6614.7696713728
 0
VERTEX
 8
VUE_1
 10
16395.0968647824
 20
6613.4254086051
 0
VERTEX
 8
VUE_1
 10
16400.4364283825
 20
6612.2334600779
 0
VERTEX
 8
VUE_1
 10
16405.8343736345
 20
6611.1895856744
 0
VERTEX
 8
VUE_1
 10
16411.2859294999
 20
6610.2895452776
 0
VERTEX
 8
VUE_1
 10
16416.7863249405
 20
6609.5290987705
 0
VERTEX
 8
VUE_1
 10
16422.3307889177
 20
6608.9040060362
 0
VERTEX
 8
VUE_1
 10
16427.9145503932
 20
6608.4100269578
 0
VERTEX
 8
VUE_1
 10
16433.5328383288
 20
6608.0429214182
 0
VERTEX
 8
VUE_1
 10
16439.1808816857
 20
6607.7984493006
 0
VERTEX
 8
VUE_1
 10
16444.8539094260
 20
6607.6723704880
 0
VERTEX
 8
VUE_1
 10
16450.5471505109
 20
6607.6604448634
 0
VERTEX
 8
VUE_1
 10
16456.2558339023
 20
6607.7584323099
 0
VERTEX
 8
VUE_1
 10
16461.9751885616
 20
6607.9620927105
 0
VERTEX
 8
VUE_1
 10
16467.7004434506
 20
6608.2671859484
 0
VERTEX
 8
VUE_1
 10
16473.4268275308
 20
6608.6694719065
 0
VERTEX
 8
VUE_1
 10
16479.1495697637
 20
6609.1647104679
 0
VERTEX
 8
VUE_1
 10
16484.8638991112
 20
6609.7486615156
 0
VERTEX
 8
VUE_1
 10
16490.5650445346
 20
6610.4170849328
 0
VERTEX
 8
VUE_1
 10
16496.2482349958
 20
6611.1657406024
 0
SEQEND
 0
POLYLINE
 8
VUE_1
 66
1
 0
VERTEX
 8
VUE_1
 10
16496.2482349958
 20
6611.1657406024
 0
VERTEX
 8
VUE_1
 10
16505.4303289669
 20
6612.5441683075
 0
VERTEX
 8
VUE_1
 10
16514.5511863850
 20
6614.1203576098
 0
VERTEX
 8
VUE_1
 10
16523.6095069204
 20
6615.8916528981
 0
VERTEX
 8
VUE_1
 10
16532.6039902435
 20
6617.8553985612
 0
VERTEX
 8
VUE_1
 10
16541.5333360248
 20
6620.0089389879
 0
VERTEX
 8
VUE_1
 10
16550.3962439345
 20
6622.3496185671
 0
VERTEX
 8
VUE_1
 10
16559.1914136435
 20
6624.8747816876
 0
VERTEX
 8
VUE_1
 10
16567.9175448216
 20
6627.5817727382
 0
VERTEX
 8
VUE_1
 10
16576.5733371397
 20
6630.4679361077
 0
VERTEX
 8
VUE_1
 10
16585.1574902682
 20
6633.5306161850
 0
VERTEX
 8
VUE_1
 10
16593.6687038772
 20
6636.7671573588
 0
VERTEX
 8
VUE_1
 10
16602.1056776373
 20
6640.1749040180
 0
VERTEX
 8
VUE_1
 10
16610.4671112190
 20
6643.7512005515
 0
VERTEX
 8
VUE_1
 10
16618.7517042927
 20
6647.4933913479
 0
VERTEX
 8
VUE_1
 10
16626.9581565285
 20
6651.3988207962
 0
VERTEX
 8
VUE_1
 10
16635.0851675972
 20
6655.4648332852
 0
VERTEX
 8
VUE_1
 10
16643.1314371692
 20
6659.6887732037
 0
VERTEX
 8
VUE_1
 10
16651.0956649148
 20
6664.0679849404
 0
VERTEX
 8
VUE_1
 10
16658.9765505044
 20
6668.5998128844
 0
VERTEX
 8
VUE_1
 10
16666.7727936084
 20
6673.2816014243
 0
SEQEND
 0
POLYLINE
 8
VUE_1
 66
1
 0
VERTEX
 8
VUE_1
 10
16666.7727936084
 20
6673.2816014243
 0
VERTEX
 8
VUE_1
 10
16677.5623675540
 20
6680.0952749510
 0
VERTEX
 8
VUE_1
 10
16688.1804677430
 20
6687.1898283681
 0
VERTEX
 8
VUE_1
 10
16698.6246778696
 20
6694.5563790631
 0
VERTEX
 8
VUE_1
 10
16708.8925816280
 20
6702.1860444238
 0
VERTEX
 8
VUE_1
 10
16718.9817627121
 20
6710.0699418375
 0
VERTEX
 8
VUE_1
 10
16728.8898048160
 20
6718.1991886919
 0
VERTEX
 8
VUE_1
 10
16738.6142916341
 20
6726.5649023746
 0
VERTEX
 8
VUE_1
 10
16748.1528068605
 20
6735.1582002732
 0
VERTEX
 8
VUE_1
 10
16757.5029341894
 20
6743.9701997751
 0
VERTEX
 8
VUE_1
 10
16766.6622573147
 20
6752.9920182680
 0
VERTEX
 8
VUE_1
 10
16775.6283599306
 20
6762.2147731394
 0
VERTEX
 8
VUE_1
 10
16784.3988257315
 20
6771.6295817770
 0
VERTEX
 8
VUE_1
 10
16792.9712384113
 20
6781.2275615683
 0
VERTEX
 8
VUE_1
 10
16801.3431816642
 20
6790.9998299008
 0
VERTEX
 8
VUE_1
 10
16809.5122391843
 20
6800.9375041622
 0
VERTEX
 8
VUE_1
 10
16817.4759946659
 20
6811.0317017399
 0
VERTEX
 8
VUE_1
 10
16825.2320318029
 20
6821.2735400217
 0
VERTEX
 8
VUE_1
 10
16832.7779342897
 20
6831.6541363950
 0
VERTEX
 8
VUE_1
 10
16840.1112858204
 20
6842.1646082474
 0
VERTEX
 8
VUE_1
 10
16847.2296700890
 20
6852.7960729665
 0
SEQEND
 0
POLYLINE
 8
VUE_1
 66
1
 0
VERTEX
 8
VUE_1
 10
16847.2296700890
 20
6852.7960729665
 0
VERTEX
 8
VUE_1
 10
16854.6592148900
 20
6864.3779737944
 0
VERTEX
 8
VUE_1
 10
16861.8487446108
 20
6876.0837653993
 0
VERTEX
 8
VUE_1
 10
16868.8106481953
 20
6887.9071673608
 0
VERTEX
 8
VUE_1
 10
16875.5573145872
 20
6899.8418992587
 0
VERTEX
 8
VUE_1
 10
16882.1011327302
 20
6911.8816806725
 0
VERTEX
 8
VUE_1
 10
16888.4544915680
 20
6924.0202311820
 0
VERTEX
 8
VUE_1
 10
16894.6297800446
 20
6936.2512703668
 0
VERTEX
 8
VUE_1
 10
16900.6393871039
 20
6948.5685178066
 0
VERTEX
 8
VUE_1
 10
16906.4957016892
 20
6960.9656930811
 0
VERTEX
 8
VUE_1
 10
16912.2111127448
 20
6973.4365157699
 0
VERTEX
 8
VUE_1
 10
16917.7980092141
 20
6985.9747054527
 0
VERTEX
 8
VUE_1
 10
16923.2687800412
 20
6998.5739817091
 0
VERTEX
 8
VUE_1
 10
16928.6358141696
 20
7011.2280641189
 0
VERTEX
 8
VUE_1
 10
16933.9115005433
 20
7023.9306722617
 0
VERTEX
 8
VUE_1
 10
16939.1082281060
 20
7036.6755257171
 0
VERTEX
 8
VUE_1
 10
16944.2383858014
 20
7049.4563440649
 0
VERTEX
 8
VUE_1
 10
16949.3143625734
 20
7062.2668468847
 0
VERTEX
 8
VUE_1
 10
16954.3485473656
 20
7075.1007537562
 0
VERTEX
 8
VUE_1
 10
16959.3533291222
 20
7087.9517842590
 0
VERTEX
 8
VUE_1
 10
16964.3410967866
 20
7100.8136579728
 0
SEQEND
 0
POLYLINE
 8
VUE_1
 66
1
 0
VERTEX
 8
VUE_1
 10
16964.3410967866
 20
7100.8136579728
 0
VERTEX
 8
VUE_1
 10
16969.8998979895
 20
7115.1801704446
 0
VERTEX
 8
VUE_1
 10
16975.4409374690
 20
7129.5546102729
 0
VERTEX
 8
VUE_1
 10
16980.9522185192
 20
7143.9392175224
 0
VERTEX
 8
VUE_1
 10
16986.4217444344
 20
7158.3362322575
 0
VERTEX
 8
VUE_1
 10
16991.8375185088
 20
7172.7478945428
 0
VERTEX
 8
VUE_1
 10
16997.1875440367
 20
7187.1764444430
 0
VERTEX
 8
VUE_1
 10
17002.4598243123
 20
7201.6241220226
 0
VERTEX
 8
VUE_1
 10
17007.6423626296
 20
7216.0931673460
 0
VERTEX
 8
VUE_1
 10
17012.7231622832
 20
7230.5858204779
 0
VERTEX
 8
VUE_1
 10
17017.6902265672
 20
7245.1043214829
 0
VERTEX
 8
VUE_1
 10
17022.5315587756
 20
7259.6509104255
 0
VERTEX
 8
VUE_1
 10
17027.2351622028
 20
7274.2278273703
 0
VERTEX
 8
VUE_1
 10
17031.7890401431
 20
7288.8373123817
 0
VERTEX
 8
VUE_1
 10
17036.1811958906
 20
7303.4816055245
 0
VERTEX
 8
VUE_1
 10
17040.3996327396
 20
7318.1629468631
 0
VERTEX
 8
VUE_1
 10
17044.4323539842
 20
7332.8835764621
 0
VERTEX
 8
VUE_1
 10
17048.2673629188
 20
7347.6457343860
 0
VERTEX
 8
VUE_1
 10
17051.8926628375
 20
7362.4516606995
 0
VERTEX
 8
VUE_1
 10
17055.2962570344
 20
7377.3035954671
 0
VERTEX
 8
VUE_1
 10
17058.4661488040
 20
7392.2037787533
 0
SEQEND
 0
POLYLINE
 8
VUE_1
 66
1
 0
VERTEX
 8
VUE_1
 10
17058.4661488040
 20
7392.2037787533
 0
VERTEX
 8
VUE_1
 10
17061.3705720329
 20
7407.0256784910
 0
VERTEX
 8
VUE_1
 10
17064.0466085532
 20
7421.8944099019
 0
VERTEX
 8
VUE_1
 10
17066.5073907635
 20
7436.8071750275
 0
VERTEX
 8
VUE_1
 10
17068.7660510616
 20
7451.7611759093
 0
VERTEX
 8
VUE_1
 10
17070.8357218464
 20
7466.7536145887
 0
VERTEX
 8
VUE_1
 10
17072.7295355157
 20
7481.7816931071
 0
VERTEX
 8
VUE_1
 10
17074.4606244682
 20
7496.8426135061
 0
VERTEX
 8
VUE_1
 10
17076.0421211022
 20
7511.9335778270
 0
VERTEX
 8
VUE_1
 10
17077.4871578158
 20
7527.0517881113
 0
VERTEX
 8
VUE_1
 10
17078.8088670075
 20
7542.1944464004
 0
VERTEX
 8
VUE_1
 10
17080.0203810753
 20
7557.3587547358
 0
VERTEX
 8
VUE_1
 10
17081.1348324181
 20
7572.5419151590
 0
VERTEX
 8
VUE_1
 10
17082.1653534336
 20
7587.7411297113
 0
VERTEX
 8
VUE_1
 10
17083.1250765205
 20
7602.9536004343
 0
VERTEX
 8
VUE_1
 10
17084.0271340772
 20
7618.1765293693
 0
VERTEX
 8
VUE_1
 10
17084.8846585016
 20
7633.4071185578
 0
VERTEX
 8
VUE_1
 10
17085.7107821922
 20
7648.6425700413
 0
VERTEX
 8
VUE_1
 10
17086.5186375476
 20
7663.8800858612
 0
VERTEX
 8
VUE_1
 10
17087.3213569658
 20
7679.1168680589
 0
VERTEX
 8
VUE_1
 10
17088.1320728452
 20
7694.3501186759
 0
SEQEND
 0
POLYLINE
 8
VUE_1
 66
1
 0
VERTEX
 8
VUE_1
 10
17088.1320728452
 20
7694.3501186759
 0
VERTEX
 8
VUE_1
 10
17088.9535110032
 20
7709.4621796554
 0
VERTEX
 8
VUE_1
 10
17089.7846451518
 20
7724.5681495662
 0
VERTEX
 8
VUE_1
 10
17090.6143613845
 20
7739.6681713279
 0
VERTEX
 8
VUE_1
 10
17091.4315457953
 20
7754.7623878598
 0
VERTEX
 8
VUE_1
 10
17092.2250844781
 20
7769.8509420812
 0
VERTEX
 8
VUE_1
 10
17092.9838635268
 20
7784.9339769117
 0
VERTEX
 8
VUE_1
 10
17093.6967690353
 20
7800.0116352705
 0
VERTEX
 8
VUE_1
 10
17094.3526870976
 20
7815.0840600771
 0
VERTEX
 8
VUE_1
 10
17094.9405038074
 20
7830.1513942509
 0
VERTEX
 8
VUE_1
 10
17095.4491052586
 20
7845.2137807113
 0
VERTEX
 8
VUE_1
 10
17095.8673775450
 20
7860.2713623777
 0
VERTEX
 8
VUE_1
 10
17096.1842067607
 20
7875.3242821695
 0
VERTEX
 8
VUE_1
 10
17096.3884789994
 20
7890.3726830061
 0
VERTEX
 8
VUE_1
 10
17096.4690803552
 20
7905.4167078068
 0
VERTEX
 8
VUE_1
 10
17096.4148969216
 20
7920.4564994912
 0
VERTEX
 8
VUE_1
 10
17096.2148147929
 20
7935.4922009785
 0
VERTEX
 8
VUE_1
 10
17095.8577200628
 20
7950.5239551882
 0
VERTEX
 8
VUE_1
 10
17095.3324988252
 20
7965.5519050397
 0
VERTEX
 8
VUE_1
 10
17094.6280371740
 20
7980.5761934524
 0
VERTEX
 8
VUE_1
 10
17093.7332212031
 20
7995.5969633456
 0
SEQEND
 0
POLYLINE
 8
VUE_1
 66
1
 0
VERTEX
 8
VUE_1
 10
17093.7332212031
 20
7995.5969633456
 0
VERTEX
 8
VUE_1
 10
17092.5708055124
 20
8011.4612887637
 0
VERTEX
 8
VUE_1
 10
17091.1823665777
 20
8027.3177057821
 0
VERTEX
 8
VUE_1
 10
17089.5667375732
 20
8043.1620734706
 0
VERTEX
 8
VUE_1
 10
17087.7227516730
 20
8058.9902508986
 0
VERTEX
 8
VUE_1
 10
17085.6492420514
 20
8074.7980971359
 0
VERTEX
 8
VUE_1
 10
17083.3450418829
 20
8090.5814712519
 0
VERTEX
 8
VUE_1
 10
17080.8089843415
 20
8106.3362323163
 0
VERTEX
 8
VUE_1
 10
17078.0399026016
 20
8122.0582393986
 0
VERTEX
 8
VUE_1
 10
17075.0366298375
 20
8137.7433515684
 0
VERTEX
 8
VUE_1
 10
17071.7979992233
 20
8153.3874278953
 0
VERTEX
 8
VUE_1
 10
17068.3228439332
 20
8168.9863274490
 0
VERTEX
 8
VUE_1
 10
17064.6099971418
 20
8184.5359092990
 0
VERTEX
 8
VUE_1
 10
17060.6582920229
 20
8200.0320325148
 0
VERTEX
 8
VUE_1
 10
17056.4665617512
 20
8215.4705561661
 0
VERTEX
 8
VUE_1
 10
17052.0336395008
 20
8230.8473393225
 0
VERTEX
 8
VUE_1
 10
17047.3583584460
 20
8246.1582410535
 0
VERTEX
 8
VUE_1
 10
17042.4395517608
 20
8261.3991204287
 0
VERTEX
 8
VUE_1
 10
17037.2760526197
 20
8276.5658365178
 0
VERTEX
 8
VUE_1
 10
17031.8666941970
 20
8291.6542483903
 0
VERTEX
 8
VUE_1
 10
17026.2103096669
 20
8306.6602151157
 0
SEQEND
 0
POLYLINE
 8
VUE_1
 66
1
 0
VERTEX
 8
VUE_1
 10
17026.2103096669
 20
8306.6602151157
 0
VERTEX
 8
VUE_1
 10
17019.9536863930
 20
8322.4482895484
 0
VERTEX
 8
VUE_1
 10
17013.4216802344
 20
8338.1325301273
 0
VERTEX
 8
VUE_1
 10
17006.6169538323
 20
8353.7061036310
 0
VERTEX
 8
VUE_1
 10
16999.5421698274
 20
8369.1621768378
 0
VERTEX
 8
VUE_1
 10
16992.1999908610
 20
8384.4939165261
 0
VERTEX
 8
VUE_1
 10
16984.5930795736
 20
8399.6944894744
 0
VERTEX
 8
VUE_1
 10
16976.7240986067
 20
8414.7570624611
 0
VERTEX
 8
VUE_1
 10
16968.5957106009
 20
8429.6748022645
 0
VERTEX
 8
VUE_1
 10
16960.2105781973
 20
8444.4408756632
 0
VERTEX
 8
VUE_1
 10
16951.5713640370
 20
8459.0484494355
 0
VERTEX
 8
VUE_1
 10
16942.6807307608
 20
8473.4906903599
 0
VERTEX
 8
VUE_1
 10
16933.5413410096
 20
8487.7607652147
 0
VERTEX
 8
VUE_1
 10
16924.1558574247
 20
8501.8518407783
 0
VERTEX
 8
VUE_1
 10
16914.5269426468
 20
8515.7570838293
 0
VERTEX
 8
VUE_1
 10
16904.6572593169
 20
8529.4696611460
 0
VERTEX
 8
VUE_1
 10
16894.5494700763
 20
8542.9827395068
 0
VERTEX
 8
VUE_1
 10
16884.2062375655
 20
8556.2894856902
 0
VERTEX
 8
VUE_1
 10
16873.6302244258
 20
8569.3830664745
 0
VERTEX
 8
VUE_1
 10
16862.8240932980
 20
8582.2566486382
 0
VERTEX
 8
VUE_1
 10
16851.7905068231
 20
8594.9033989597
 0
SEQEND
 0
POLYLINE
 8
VUE_1
 66
1
 0
VERTEX
 8
VUE_1
 10
16851.7905068231
 20
8594.9033989597
 0
VERTEX
 8
VUE_1
 10
16842.5938842844
 20
8605.0809979171
 0
VERTEX
 8
VUE_1
 10
16833.2498310632
 20
8615.1071536343
 0
VERTEX
 8
VUE_1
 10
16823.7614656696
 20
8624.9869140999
 0
VERTEX
 8
VUE_1
 10
16814.1319066144
 20
8634.7253273023
 0
VERTEX
 8
VUE_1
 10
16804.3642724078
 20
8644.3274412302
 0
VERTEX
 8
VUE_1
 10
16794.4616815601
 20
8653.7983038721
 0
VERTEX
 8
VUE_1
 10
16784.4272525820
 20
8663.1429632166
 0
VERTEX
 8
VUE_1
 10
16774.2641039836
 20
8672.3664672522
 0
VERTEX
 8
VUE_1
 10
16763.9753542756
 20
8681.4738639674
 0
VERTEX
 8
VUE_1
 10
16753.5641219680
 20
8690.4702013509
 0
VERTEX
 8
VUE_1
 10
16743.0335255717
 20
8699.3605273911
 0
VERTEX
 8
VUE_1
 10
16732.3866835968
 20
8708.1498900767
 0
VERTEX
 8
VUE_1
 10
16721.6267145538
 20
8716.8433373961
 0
VERTEX
 8
VUE_1
 10
16710.7567369532
 20
8725.4459173380
 0
VERTEX
 8
VUE_1
 10
16699.7798693052
 20
8733.9626778908
 0
VERTEX
 8
VUE_1
 10
16688.6992301202
 20
8742.3986670433
 0
VERTEX
 8
VUE_1
 10
16677.5179379090
 20
8750.7589327838
 0
VERTEX
 8
VUE_1
 10
16666.2391111816
 20
8759.0485231009
 0
VERTEX
 8
VUE_1
 10
16654.8658684485
 20
8767.2724859833
 0
VERTEX
 8
VUE_1
 10
16643.4013282201
 20
8775.4358694194
 0
SEQEND
 0
POLYLINE
 8
VUE_1
 66
1
 0
VERTEX
 8
VUE_1
 10
16643.4013282201
 20
8775.4358694194
 0
VERTEX
 8
VUE_1
 10
16635.2033614756
 20
8781.1975718769
 0
VERTEX
 8
VUE_1
 10
16626.9589983242
 20
8786.9148143040
 0
VERTEX
 8
VUE_1
 10
16618.6663358982
 20
8792.5711568512
 0
VERTEX
 8
VUE_1
 10
16610.3234713304
 20
8798.1501596687
 0
VERTEX
 8
VUE_1
 10
16601.9285017535
 20
8803.6353829072
 0
VERTEX
 8
VUE_1
 10
16593.4795242996
 20
8809.0103867171
 0
VERTEX
 8
VUE_1
 10
16584.9746361016
 20
8814.2587312489
 0
VERTEX
 8
VUE_1
 10
16576.4119342920
 20
8819.3639766529
 0
VERTEX
 8
VUE_1
 10
16567.7895160033
 20
8824.3096830797
 0
VERTEX
 8
VUE_1
 10
16559.1054783682
 20
8829.0794106798
 0
VERTEX
 8
VUE_1
 10
16550.3579185191
 20
8833.6567196035
 0
VERTEX
 8
VUE_1
 10
16541.5449335886
 20
8838.0251700014
 0
VERTEX
 8
VUE_1
 10
16532.6646207092
 20
8842.1683220239
 0
VERTEX
 8
VUE_1
 10
16523.7150770137
 20
8846.0697358215
 0
VERTEX
 8
VUE_1
 10
16514.6943996344
 20
8849.7129715446
 0
VERTEX
 8
VUE_1
 10
16505.6006857040
 20
8853.0815893438
 0
VERTEX
 8
VUE_1
 10
16496.4320323548
 20
8856.1591493693
 0
VERTEX
 8
VUE_1
 10
16487.1865367198
 20
8858.9292117718
 0
VERTEX
 8
VUE_1
 10
16477.8622959312
 20
8861.3753367017
 0
VERTEX
 8
VUE_1
 10
16468.4574071219
 20
8863.4810843094
 0
SEQEND
 0
POLYLINE
 8
VUE_1
 66
1
 0
VERTEX
 8
VUE_1
 10
16468.4574071219
 20
8863.4810843094
 0
VERTEX
 8
VUE_1
 10
16460.6744895388
 20
8864.9482590370
 0
VERTEX
 8
VUE_1
 10
16452.8400609048
 20
8866.1911154613
 0
VERTEX
 8
VUE_1
 10
16444.9582634844
 20
8867.2258906359
 0
VERTEX
 8
VUE_1
 10
16437.0332395412
 20
8868.0688216137
 0
VERTEX
 8
VUE_1
 10
16429.0691313392
 20
8868.7361454482
 0
VERTEX
 8
VUE_1
 10
16421.0700811428
 20
8869.2440991926
 0
VERTEX
 8
VUE_1
 10
16413.0402312158
 20
8869.6089199001
 0
VERTEX
 8
VUE_1
 10
16404.9837238221
 20
8869.8468446240
 0
VERTEX
 8
VUE_1
 10
16396.9047012260
 20
8869.9741104174
 0
VERTEX
 8
VUE_1
 10
16388.8073056913
 20
8870.0069543338
 0
VERTEX
 8
VUE_1
 10
16380.6956794823
 20
8869.9616134262
 0
VERTEX
 8
VUE_1
 10
16372.5739648627
 20
8869.8543247480
 0
VERTEX
 8
VUE_1
 10
16364.4463040968
 20
8869.7013253524
 0
VERTEX
 8
VUE_1
 10
16356.3168394485
 20
8869.5188522927
 0
VERTEX
 8
VUE_1
 10
16348.1897131818
 20
8869.3231426221
 0
VERTEX
 8
VUE_1
 10
16340.0690675608
 20
8869.1304333939
 0
VERTEX
 8
VUE_1
 10
16331.9590448495
 20
8868.9569616612
 0
VERTEX
 8
VUE_1
 10
16323.8637873119
 20
8868.8189644774
 0
VERTEX
 8
VUE_1
 10
16315.7874372121
 20
8868.7326788957
 0
VERTEX
 8
VUE_1
 10
16307.7341368141
 20
8868.7143419694
 0
SEQEND
 0
POLYLINE
 8
VUE_1
 66
1
 0
VERTEX
 8
VUE_1
 10
16308.7492504448
 20
7418.2289582924
 0
VERTEX
 8
VUE_1
 10
16012.3173767512
 20
7424.7799978891
 0
SEQEND
 0
POLYLINE
 8
VUE_1
 66
1
 0
VERTEX
 8
VUE_1
 10
16952.7786149657
 20
7096.0314443876
 0
VERTEX
 8
VUE_1
 10
16147.1238919874
 20
7078.8907116951
 0
SEQEND
 0
POLYLINE
 8
VUE_1
 66
1
 0
VERTEX
 8
VUE_1
 10
17058.4661488040
 20
7392.2037787533
 0
VERTEX
 8
VUE_1
 10
16146.0606828775
 20
7408.0674117853
 0
SEQEND
 0
POLYLINE
 8
VUE_1
 66
1
 0
VERTEX
 8
VUE_1
 10
16147.1238919874
 20
7078.8907116951
 0
VERTEX
 8
VUE_1
 10
16152.8006343243
 20
7409.0122634255
 0
SEQEND
 0
POLYLINE
 8
VUE_1
 66
1
 0
VERTEX
 8
VUE_1
 10
16963.3609679561
 20
7094.0787461246
 0
VERTEX
 8
VUE_1
 10
16151.9640609565
 20
7089.4655052875
 0
SEQEND
 0
POLYLINE
 8
VUE_1
 66
1
 0
VERTEX
 8
VUE_1
 10
17058.4661488040
 20
7392.2037787533
 0
VERTEX
 8
VUE_1
 10
16476.1494772168
 20
7389.8782963888
 0
SEQEND
 0
POLYLINE
 8
VUE_1
 66
1
 0
VERTEX
 8
VUE_1
 10
17088.1320728452
 20
7694.3501186759
 0
VERTEX
 8
VUE_1
 10
16468.3059998714
 20
7702.7103010730
 0
SEQEND
 0
POLYLINE
 8
VUE_1
 66
1
 0
VERTEX
 8
VUE_1
 10
17093.7332212031
 20
7995.5969633456
 0
VERTEX
 8
VUE_1
 10
16472.9219798003
 20
7995.2972534238
 0
SEQEND
 0
POLYLINE
 8
VUE_1
 66
1
 0
VERTEX
 8
VUE_1
 10
17026.2103096669
 20
8306.6602151157
 0
VERTEX
 8
VUE_1
 10
16466.9808047318
 20
8299.4618063912
 0
SEQEND
 0
POLYLINE
 8
VUE_1
 66
1
 0
VERTEX
 8
VUE_1
 10
16851.7905068231
 20
8594.9033989597
 0
VERTEX
 8
VUE_1
 10
16366.6979480033
 20
8597.1358680426
 0
SEQEND
 0
POLYLINE
 8
VUE_1
 66
1
 0
VERTEX
 8
VUE_1
 10
16466.9808047318
 20
8299.4618063912
 0
VERTEX
 8
VUE_1
 10
15725.8456849130
 20
8294.6646202052
 0
SEQEND
 0
POLYLINE
 8
VUE_1
 66
1
 0
VERTEX
 8
VUE_1
 10
16366.6979480033
 20
8597.1358680426
 0
VERTEX
 8
VUE_1
 10
15624.6053775478
 20
8594.2661821265
 0
SEQEND
 0
POLYLINE
 8
VUE_1
 66
1
 0
VERTEX
 8
VUE_1
 10
16472.9219798003
 20
7995.2972534238
 0
VERTEX
 8
VUE_1
 10
15818.4135009628
 20
7991.2357755361
 0
SEQEND
 0
POLYLINE
 8
VUE_1
 66
1
 0
VERTEX
 8
VUE_1
 10
15573.0340727267
 20
8748.4006889456
 0
VERTEX
 8
VUE_1
 10
16307.7341368141
 20
8868.7143419694
 0
SEQEND
 0
POINT
 8
VUE_1
 10
16316.8392169850
 20
7418.5696023601
 0
POLYLINE
 8
VUE_1
 66
1
 0
VERTEX
 8
VUE_1
 10
16308.7492504448
 20
7418.2289582924
 0
VERTEX
 8
VUE_1
 10
15640.2568410874
 20
9015.2981869255
 0
SEQEND
 0
POINT
 8
VUE_1
 10
8039.2079490087
 20
9015.5530075195
 0
POLYLINE
 8
VUE_1
 66
1
 0
VERTEX
 8
VUE_1
 10
8967.2420644976
 20
8540.2868902638
 0
VERTEX
 8
VUE_1
 10
8969.6578904368
 20
9463.1698963828
 0
SEQEND
 0
POLYLINE
 8
VUE_1
 66
1
 0
VERTEX
 8
VUE_1
 10
8232.7167157777
 20
8528.8082420557
 0
VERTEX
 8
VUE_1
 10
8235.2615321750
 20
9500.8539548146
 0
SEQEND
 0
POLYLINE
 8
VUE_1
 66
1
 0
VERTEX
 8
VUE_1
 10
7834.5336592478
 20
9887.5152517059
 0
VERTEX
 8
VUE_1
 10
7832.5659070980
 20
9135.8792770808
 0
SEQEND
 0
POLYLINE
 8
VUE_1
 66
1
 0
VERTEX
 8
VUE_1
 10
9333.7038561681
 20
9015.5096103225
 0
VERTEX
 8
VUE_1
 10
9334.6783929065
 20
9387.7543140140
 0
SEQEND
 0
POLYLINE
 8
VUE_1
 66
1
 0
VERTEX
 8
VUE_1
 10
10196.9664592883
 20
8600.1237292971
 0
VERTEX
 8
VUE_1
 10
10199.7599269662
 20
9667.1475132894
 0
SEQEND
 0
POLYLINE
 8
VUE_1
 66
1
 0
VERTEX
 8
VUE_1
 10
11609.1567592246
 20
8604.9948378854
 0
VERTEX
 8
VUE_1
 10
11611.3060701156
 20
9425.9702187094
 0
SEQEND
 0
POLYLINE
 8
VUE_1
 66
1
 0
VERTEX
 8
VUE_1
 10
12132.6410845788
 20
8606.8005074139
 0
VERTEX
 8
VUE_1
 10
12133.7108467907
 20
9015.4157417717
 0
SEQEND
 0
POLYLINE
 8
VUE_1
 66
1
 0
VERTEX
 8
VUE_1
 10
12948.4321988329
 20
8659.0662319189
 0
VERTEX
 8
VUE_1
 10
12949.3650420742
 20
9015.3883974552
 0
SEQEND
 0
POINT
 8
VUE_1
 10
12134.9057279739
 20
8606.8083189134
 0
POLYLINE
 8
VUE_1
 66
1
 0
VERTEX
 8
VUE_1
 10
15269.2595641079
 20
8808.1475450657
 0
VERTEX
 8
VUE_1
 10
12134.9057279739
 20
8606.8083189134
 0
SEQEND
 0
POLYLINE
 8
VUE_1
 66
1
 0
VERTEX
 8
VUE_1
 10
15269.2595641079
 20
8808.1475450657
 0
VERTEX
 8
VUE_1
 10
15269.8019127413
 20
9015.3106062043
 0
SEQEND
 0
POLYLINE
 8
VUE_1
 66
1
 0
VERTEX
 8
VUE_1
 10
14571.1621370398
 20
8763.3043642721
 0
VERTEX
 8
VUE_1
 10
14572.4815757890
 20
9267.2799324802
 0
SEQEND
 0
POLYLINE
 8
VUE_1
 66
1
 0
VERTEX
 8
VUE_1
 10
13763.4899184984
 20
8711.4225066493
 0
VERTEX
 8
VUE_1
 10
13764.2856758264
 20
9015.3610777309
 0
SEQEND
 0
POLYLINE
 8
VUE_1
 66
1
 0
VERTEX
 8
VUE_1
 10
10205.3624960752
 20
11807.1620469883
 0
VERTEX
 8
VUE_1
 10
10205.3624960752
 20
11807.1620469883
 0
SEQEND
 0
POLYLINE
 8
VUE_1
 66
1
 0
VERTEX
 8
VUE_1
 10
12134.9057279739
 20
8606.8083189134
 0
VERTEX
 8
VUE_1
 10
10199.1416974065
 20
8600.1312324085
 0
SEQEND
 0
POLYLINE
 8
VUE_1
 66
1
 0
VERTEX
 8
VUE_1
 10
12948.4321988329
 20
8659.0662319190
 0
VERTEX
 8
VUE_1
 10
12156.4901973780
 20
9422.6368861184
 0
SEQEND
 0
POLYLINE
 8
VUE_1
 66
1
 0
VERTEX
 8
VUE_1
 10
12948.4321988329
 20
8659.0662319189
 0
VERTEX
 8
VUE_1
 10
13760.6518297493
 20
9319.4771925757
 0
SEQEND
 0
POLYLINE
 8
VUE_1
 66
1
 0
VERTEX
 8
VUE_1
 10
14571.1621370398
 20
8763.3043642718
 0
VERTEX
 8
VUE_1
 10
13760.6518297493
 20
9319.4771925757
 0
SEQEND
 0
POLYLINE
 8
VUE_1
 66
1
 0
VERTEX
 8
VUE_1
 10
13763.5102972159
 20
9319.2997014839
 0
VERTEX
 8
VUE_1
 10
13764.2856758264
 20
9015.3610777309
 0
SEQEND
 0
POLYLINE
 8
VUE_1
 66
1
 0
VERTEX
 8
VUE_1
 10
12948.4560898077
 20
9371.7106247365
 0
VERTEX
 8
VUE_1
 10
12949.3650420742
 20
9015.3883974552
 0
SEQEND
 0
POLYLINE
 8
VUE_1
 66
1
 0
VERTEX
 8
VUE_1
 10
12132.6680738562
 20
9424.1687345234
 0
VERTEX
 8
VUE_1
 10
12133.7108467907
 20
9015.4157417717
 0
SEQEND
 0
POLYLINE
 8
VUE_1
 66
1
 0
VERTEX
 8
VUE_1
 10
15269.2734541432
 20
9222.4737032410
 0
VERTEX
 8
VUE_1
 10
15269.8019127413
 20
9015.3106062043
 0
SEQEND
 0
POLYLINE
 8
VUE_1
 66
1
 0
VERTEX
 8
VUE_1
 10
12132.6680738562
 20
9424.1687345234
 0
VERTEX
 8
VUE_1
 10
11375.8808611056
 20
9699.7153260576
 0
SEQEND
 0
POLYLINE
 8
VUE_1
 66
1
 0
VERTEX
 8
VUE_1
 10
11375.8808611056
 20
9699.7153260576
 0
VERTEX
 8
VUE_1
 10
11376.9271770346
 20
16118.5560043533
 0
SEQEND
 0
POLYLINE
 8
VUE_1
 66
1
 0
VERTEX
 8
VUE_1
 10
11281.7790298404
 20
9879.1359763510
 0
VERTEX
 8
VUE_1
 10
11291.0551511677
 20
16089.0153131865
 0
SEQEND
 0
POLYLINE
 8
VUE_1
 66
1
 0
VERTEX
 8
VUE_1
 10
11820.8734745610
 20
15720.0745170554
 0
VERTEX
 8
VUE_1
 10
11817.1711155994
 20
15732.3171242019
 0
VERTEX
 8
VUE_1
 10
11813.2229745652
 20
15744.5175590822
 0
VERTEX
 8
VUE_1
 10
11809.0279720778
 20
15756.6649415721
 0
VERTEX
 8
VUE_1
 10
11804.5850287568
 20
15768.7483915474
 0
VERTEX
 8
VUE_1
 10
11799.8930652214
 20
15780.7570288839
 0
VERTEX
 8
VUE_1
 10
11794.9510020911
 20
15792.6799734573
 0
VERTEX
 8
VUE_1
 10
11789.7577599853
 20
15804.5063451434
 0
VERTEX
 8
VUE_1
 10
11784.3122595235
 20
15816.2252638180
 0
VERTEX
 8
VUE_1
 10
11778.6134213250
 20
15827.8258493568
 0
VERTEX
 8
VUE_1
 10
11772.6601660093
 20
15839.2972216357
 0
VERTEX
 8
VUE_1
 10
11766.4514141957
 20
15850.6285005304
 0
VERTEX
 8
VUE_1
 10
11759.9860865037
 20
15861.8088059167
 0
VERTEX
 8
VUE_1
 10
11753.2631035527
 20
15872.8272576704
 0
VERTEX
 8
VUE_1
 10
11746.2813859622
 20
15883.6729756672
 0
VERTEX
 8
VUE_1
 10
11739.0398543515
 20
15894.3350797829
 0
VERTEX
 8
VUE_1
 10
11731.5374293400
 20
15904.8026898932
 0
VERTEX
 8
VUE_1
 10
11723.7730315471
 20
15915.0649258741
 0
VERTEX
 8
VUE_1
 10
11715.7455815924
 20
15925.1109076012
 0
VERTEX
 8
VUE_1
 10
11707.4540000951
 20
15934.9297549502
 0
VERTEX
 8
VUE_1
 10
11698.8972076748
 20
15944.5105877971
 0
SEQEND
 0
POLYLINE
 8
VUE_1
 66
1
 0
VERTEX
 8
VUE_1
 10
11698.8972076748
 20
15944.5105877971
 0
VERTEX
 8
VUE_1
 10
11687.8854362017
 20
15956.0828824270
 0
VERTEX
 8
VUE_1
 10
11676.4797436140
 20
15967.2714262319
 0
VERTEX
 8
VUE_1
 10
11664.6982055882
 20
15978.0775510803
 0
VERTEX
 8
VUE_1
 10
11652.5588978006
 20
15988.5025888409
 0
VERTEX
 8
VUE_1
 10
11640.0798959276
 20
15998.5478713820
 0
VERTEX
 8
VUE_1
 10
11627.2792756457
 20
16008.2147305722
 0
VERTEX
 8
VUE_1
 10
11614.1751126313
 20
16017.5044982801
 0
VERTEX
 8
VUE_1
 10
11600.7854825608
 20
16026.4185063742
 0
VERTEX
 8
VUE_1
 10
11587.1284611107
 20
16034.9580867230
 0
VERTEX
 8
VUE_1
 10
11573.2221239573
 20
16043.1245711950
 0
VERTEX
 8
VUE_1
 10
11559.0845467771
 20
16050.9192916589
 0
VERTEX
 8
VUE_1
 10
11544.7338052465
 20
16058.3435799830
 0
VERTEX
 8
VUE_1
 10
11530.1879750419
 20
16065.3987680359
 0
VERTEX
 8
VUE_1
 10
11515.4651318397
 20
16072.0861876862
 0
VERTEX
 8
VUE_1
 10
11500.5833513164
 20
16078.4071708024
 0
VERTEX
 8
VUE_1
 10
11485.5607091484
 20
16084.3630492530
 0
VERTEX
 8
VUE_1
 10
11470.4152810121
 20
16089.9551549065
 0
VERTEX
 8
VUE_1
 10
11455.1651425840
 20
16095.1848196315
 0
VERTEX
 8
VUE_1
 10
11439.8283695404
 20
16100.0533752965
 0
VERTEX
 8
VUE_1
 10
11424.4230375577
 20
16104.5621537700
 0
SEQEND
 0
POLYLINE
 8
VUE_1
 66
1
 0
VERTEX
 8
VUE_1
 10
11424.4230375577
 20
16104.5621537700
 0
VERTEX
 8
VUE_1
 10
11406.0233977290
 20
16109.4642161825
 0
VERTEX
 8
VUE_1
 10
11387.5562057586
 20
16113.8846196848
 0
VERTEX
 8
VUE_1
 10
11369.0253878563
 20
16117.8492217104
 0
VERTEX
 8
VUE_1
 10
11350.4348702319
 20
16121.3838796922
 0
VERTEX
 8
VUE_1
 10
11331.7885790953
 20
16124.5144510635
 0
VERTEX
 8
VUE_1
 10
11313.0904406565
 20
16127.2667932575
 0
VERTEX
 8
VUE_1
 10
11294.3443811252
 20
16129.6667637073
 0
VERTEX
 8
VUE_1
 10
11275.5543267113
 20
16131.7402198462
 0
VERTEX
 8
VUE_1
 10
11256.7242036246
 20
16133.5130191072
 0
VERTEX
 8
VUE_1
 10
11237.8579380752
 20
16135.0110189236
 0
VERTEX
 8
VUE_1
 10
11218.9594562727
 20
16136.2600767286
 0
VERTEX
 8
VUE_1
 10
11200.0326844271
 20
16137.2860499553
 0
VERTEX
 8
VUE_1
 10
11181.0815487483
 20
16138.1147960369
 0
VERTEX
 8
VUE_1
 10
11162.1099754460
 20
16138.7721724066
 0
VERTEX
 8
VUE_1
 10
11143.1218907302
 20
16139.2840364975
 0
VERTEX
 8
VUE_1
 10
11124.1212208108
 20
16139.6762457429
 0
VERTEX
 8
VUE_1
 10
11105.1118918975
 20
16139.9746575759
 0
VERTEX
 8
VUE_1
 10
11086.0978302003
 20
16140.2051294297
 0
VERTEX
 8
VUE_1
 10
11067.0829619290
 20
16140.3935187374
 0
VERTEX
 8
VUE_1
 10
11048.0712132935
 20
16140.5656829323
 0
SEQEND
 0
POLYLINE
 8
VUE_1
 66
1
 0
VERTEX
 8
VUE_1
 10
11048.0712132935
 20
16140.5656829323
 0
VERTEX
 8
VUE_1
 10
11030.2001925992
 20
16140.7309273427
 0
VERTEX
 8
VUE_1
 10
11012.3359924784
 20
16140.8964207030
 0
VERTEX
 8
VUE_1
 10
10994.4792036929
 20
16141.0538952363
 0
VERTEX
 8
VUE_1
 10
10976.6304170040
 20
16141.1950831651
 0
VERTEX
 8
VUE_1
 10
10958.7902231734
 20
16141.3117167125
 0
VERTEX
 8
VUE_1
 10
10940.9592129626
 20
16141.3955281013
 0
VERTEX
 8
VUE_1
 10
10923.1379771332
 20
16141.4382495542
 0
VERTEX
 8
VUE_1
 10
10905.3271064467
 20
16141.4316132941
 0
VERTEX
 8
VUE_1
 10
10887.5271916647
 20
16141.3673515438
 0
VERTEX
 8
VUE_1
 10
10869.7388235488
 20
16141.2371965262
 0
VERTEX
 8
VUE_1
 10
10851.9625928604
 20
16141.0328804641
 0
VERTEX
 8
VUE_1
 10
10834.1990903612
 20
16140.7461355802
 0
VERTEX
 8
VUE_1
 10
10816.4489068127
 20
16140.3686940976
 0
VERTEX
 8
VUE_1
 10
10798.7126329764
 20
16139.8922882389
 0
VERTEX
 8
VUE_1
 10
10780.9908596140
 20
16139.3086502270
 0
VERTEX
 8
VUE_1
 10
10763.2841774869
 20
16138.6095122847
 0
VERTEX
 8
VUE_1
 10
10745.5931773567
 20
16137.7866066349
 0
VERTEX
 8
VUE_1
 10
10727.9184499850
 20
16136.8316655004
 0
VERTEX
 8
VUE_1
 10
10710.2605861333
 20
16135.7364211040
 0
VERTEX
 8
VUE_1
 10
10692.6201765633
 20
16134.4926056686
 0
SEQEND
 0
POLYLINE
 8
VUE_1
 66
1
 0
VERTEX
 8
VUE_1
 10
10692.6201765633
 20
16134.4926056686
 0
VERTEX
 8
VUE_1
 10
10676.5654260567
 20
16133.2233768472
 0
VERTEX
 8
VUE_1
 10
10660.5252261443
 20
16131.8188506680
 0
VERTEX
 8
VUE_1
 10
10644.4991516760
 20
16130.2738917241
 0
VERTEX
 8
VUE_1
 10
10628.4867775015
 20
16128.5833646083
 0
VERTEX
 8
VUE_1
 10
10612.4876784707
 20
16126.7421339136
 0
VERTEX
 8
VUE_1
 10
10596.5014294335
 20
16124.7450642330
 0
VERTEX
 8
VUE_1
 10
10580.5276052396
 20
16122.5870201594
 0
VERTEX
 8
VUE_1
 10
10564.5657807390
 20
16120.2628662858
 0
VERTEX
 8
VUE_1
 10
10548.6155307815
 20
16117.7674672053
 0
VERTEX
 8
VUE_1
 10
10532.6764302168
 20
16115.0956875106
 0
VERTEX
 8
VUE_1
 10
10516.7480538949
 20
16112.2423917949
 0
VERTEX
 8
VUE_1
 10
10500.8299766656
 20
16109.2024446510
 0
VERTEX
 8
VUE_1
 10
10484.9217733787
 20
16105.9707106719
 0
VERTEX
 8
VUE_1
 10
10469.0230188841
 20
16102.5420544507
 0
VERTEX
 8
VUE_1
 10
10453.1332880316
 20
16098.9113405802
 0
VERTEX
 8
VUE_1
 10
10437.2521556710
 20
16095.0734336534
 0
VERTEX
 8
VUE_1
 10
10421.3791966522
 20
16091.0231982633
 0
VERTEX
 8
VUE_1
 10
10405.5139858251
 20
16086.7554990028
 0
VERTEX
 8
VUE_1
 10
10389.6560980394
 20
16082.2652004650
 0
VERTEX
 8
VUE_1
 10
10373.8051081450
 20
16077.5471672428
 0
SEQEND
 0
POLYLINE
 8
VUE_1
 66
1
 0
VERTEX
 8
VUE_1
 10
10373.8051081450
 20
16077.5471672428
 0
VERTEX
 8
VUE_1
 10
10361.3105953025
 20
16073.6601998108
 0
VERTEX
 8
VUE_1
 10
10348.8386724113
 20
16069.6157980110
 0
VERTEX
 8
VUE_1
 10
10336.4079027130
 20
16065.4013965905
 0
VERTEX
 8
VUE_1
 10
10324.0368494491
 20
16061.0044302963
 0
VERTEX
 8
VUE_1
 10
10311.7440758611
 20
16056.4123338754
 0
VERTEX
 8
VUE_1
 10
10299.5481451907
 20
16051.6125420749
 0
VERTEX
 8
VUE_1
 10
10287.4676206793
 20
16046.5924896418
 0
VERTEX
 8
VUE_1
 10
10275.5210655685
 20
16041.3396113233
 0
VERTEX
 8
VUE_1
 10
10263.7270430998
 20
16035.8413418662
 0
VERTEX
 8
VUE_1
 10
10252.1041165147
 20
16030.0851160178
 0
VERTEX
 8
VUE_1
 10
10240.6708490548
 20
16024.0583685250
 0
VERTEX
 8
VUE_1
 10
10229.4458039617
 20
16017.7485341349
 0
VERTEX
 8
VUE_1
 10
10218.4475444768
 20
16011.1430475945
 0
VERTEX
 8
VUE_1
 10
10207.6946338417
 20
16004.2293436509
 0
VERTEX
 8
VUE_1
 10
10197.2056352980
 20
15996.9948570511
 0
VERTEX
 8
VUE_1
 10
10186.9991120872
 20
15989.4270225422
 0
VERTEX
 8
VUE_1
 10
10177.0936274507
 20
15981.5132748713
 0
VERTEX
 8
VUE_1
 10
10167.5077446303
 20
15973.2410487853
 0
VERTEX
 8
VUE_1
 10
10158.2600268673
 20
15964.5977790314
 0
VERTEX
 8
VUE_1
 10
10149.3690374034
 20
15955.5709003565
 0
SEQEND
 0
POLYLINE
 8
VUE_1
 66
1
 0
VERTEX
 8
VUE_1
 10
10149.3690374034
 20
15955.5709003565
 0
VERTEX
 8
VUE_1
 10
10141.1562376593
 20
15946.5066791464
 0
VERTEX
 8
VUE_1
 10
10133.2886064027
 20
15937.0953826559
 0
VERTEX
 8
VUE_1
 10
10125.7631042024
 20
15927.3575191221
 0
VERTEX
 8
VUE_1
 10
10118.5766916269
 20
15917.3135967822
 0
VERTEX
 8
VUE_1
 10
10111.7263292450
 20
15906.9841238732
 0
VERTEX
 8
VUE_1
 10
10105.2089776254
 20
15896.3896086323
 0
VERTEX
 8
VUE_1
 10
10099.0215973368
 20
15885.5505592965
 0
VERTEX
 8
VUE_1
 10
10093.1611489479
 20
15874.4874841029
 0
VERTEX
 8
VUE_1
 10
10087.6245930274
 20
15863.2208912887
 0
VERTEX
 8
VUE_1
 10
10082.4088901440
 20
15851.7712890909
 0
VERTEX
 8
VUE_1
 10
10077.5110008664
 20
15840.1591857467
 0
VERTEX
 8
VUE_1
 10
10072.9278857633
 20
15828.4050894931
 0
VERTEX
 8
VUE_1
 10
10068.6565054035
 20
15816.5295085672
 0
VERTEX
 8
VUE_1
 10
10064.6938203556
 20
15804.5529512062
 0
VERTEX
 8
VUE_1
 10
10061.0367911883
 20
15792.4959256471
 0
VERTEX
 8
VUE_1
 10
10057.6823784704
 20
15780.3789401270
 0
VERTEX
 8
VUE_1
 10
10054.6275427704
 20
15768.2225028830
 0
VERTEX
 8
VUE_1
 10
10051.8692446573
 20
15756.0471221523
 0
VERTEX
 8
VUE_1
 10
10049.4044446995
 20
15743.8733061720
 0
VERTEX
 8
VUE_1
 10
10047.2301034659
 20
15731.7215631790
 0
SEQEND
 0
POLYLINE
 8
VUE_1
 66
1
 0
VERTEX
 8
VUE_1
 10
10066.6709249522
 20
9880.0992394855
 0
VERTEX
 8
VUE_1
 10
10081.9521559694
 20
15717.0861910743
 0
SEQEND
 0
POINT
 8
VUE_1
 10
7637.4678216029
 20
9015.5664756157
 0
POLYLINE
 8
VUE_1
 66
1
 0
VERTEX
 8
VUE_1
 10
11450.4053086596
 20
9672.5809385264
 0
VERTEX
 8
VUE_1
 10
10199.7599269662
 20
9667.1475132894
 0
SEQEND
 0
POLYLINE
 8
VUE_1
 66
1
 0
VERTEX
 8
VUE_1
 10
10199.7599269662
 20
9667.1475132894
 0
VERTEX
 8
VUE_1
 10
9677.7137333686
 20
9459.0349270836
 0
SEQEND
 0
POLYLINE
 8
VUE_1
 66
1
 0
VERTEX
 8
VUE_1
 10
9686.7481212348
 20
9015.4977747258
 0
VERTEX
 8
VUE_1
 10
9687.9199533836
 20
9463.1036146226
 0
SEQEND
 0
POLYLINE
 8
VUE_1
 66
1
 0
VERTEX
 8
VUE_1
 10
9677.7137333686
 20
9459.0349270836
 0
VERTEX
 8
VUE_1
 10
9334.6783929065
 20
9387.7543140140
 0
SEQEND
 0
POLYLINE
 8
VUE_1
 66
1
 0
VERTEX
 8
VUE_1
 10
9336.6680948259
 20
9425.1362649407
 0
VERTEX
 8
VUE_1
 10
8970.5823085368
 20
8686.1950278167
 0
SEQEND
 0
POLYLINE
 8
VUE_1
 66
1
 0
VERTEX
 8
VUE_1
 10
8968.2932509851
 20
8697.7981937612
 0
VERTEX
 8
VUE_1
 10
9334.5913894511
 20
8631.8950554101
 0
SEQEND
 0
POLYLINE
 8
VUE_1
 66
1
 0
VERTEX
 8
VUE_1
 10
9334.6783929065
 20
9387.7543140140
 0
VERTEX
 8
VUE_1
 10
8969.2947664713
 20
9324.4670755191
 0
SEQEND
 0
POINT
 8
VUE_1
 10
7955.5391576269
 20
9018.2121293006
 0
POLYLINE
 8
VUE_1
 66
1
 0
VERTEX
 8
VUE_1
 10
7955.5391576269
 20
9018.2121293006
 0
VERTEX
 8
VUE_1
 10
7955.5252828292
 20
9027.9553376301
 0
VERTEX
 8
VUE_1
 10
7955.4421592781
 20
9037.7002522061
 0
VERTEX
 8
VUE_1
 10
7955.3040538560
 20
9047.4465543871
 0
VERTEX
 8
VUE_1
 10
7955.1252334450
 20
9057.1939255315
 0
VERTEX
 8
VUE_1
 10
7954.9199649276
 20
9066.9420469977
 0
VERTEX
 8
VUE_1
 10
7954.7025151859
 20
9076.6906001442
 0
VERTEX
 8
VUE_1
 10
7954.4871511024
 20
9086.4392663293
 0
VERTEX
 8
VUE_1
 10
7954.2881395593
 20
9096.1877269115
 0
VERTEX
 8
VUE_1
 10
7954.1197474390
 20
9105.9356632492
 0
VERTEX
 8
VUE_1
 10
7953.9962416237
 20
9115.6827567008
 0
VERTEX
 8
VUE_1
 10
7953.9318889957
 20
9125.4286886248
 0
VERTEX
 8
VUE_1
 10
7953.9409564374
 20
9135.1731403794
 0
VERTEX
 8
VUE_1
 10
7954.0377108310
 20
9144.9157933233
 0
VERTEX
 8
VUE_1
 10
7954.2364190589
 20
9154.6563288147
 0
VERTEX
 8
VUE_1
 10
7954.5513480034
 20
9164.3944282121
 0
VERTEX
 8
VUE_1
 10
7954.9967645467
 20
9174.1297728739
 0
VERTEX
 8
VUE_1
 10
7955.5869355713
 20
9183.8620441585
 0
VERTEX
 8
VUE_1
 10
7956.3361279593
 20
9193.5909234243
 0
VERTEX
 8
VUE_1
 10
7957.2586085931
 20
9203.3160920298
 0
VERTEX
 8
VUE_1
 10
7958.3686443550
 20
9213.0372313334
 0
SEQEND
 0
POLYLINE
 8
VUE_1
 66
1
 0
VERTEX
 8
VUE_1
 10
7958.3686443550
 20
9213.0372313334
 0
VERTEX
 8
VUE_1
 10
7958.9713779885
 20
9217.6944582735
 0
VERTEX
 8
VUE_1
 10
7959.6224012998
 20
9222.3487630488
 0
VERTEX
 8
VUE_1
 10
7960.3236452479
 20
9226.9982222218
 0
VERTEX
 8
VUE_1
 10
7961.0770407918
 20
9231.6409123547
 0
VERTEX
 8
VUE_1
 10
7961.8845188905
 20
9236.2749100098
 0
VERTEX
 8
VUE_1
 10
7962.7480105029
 20
9240.8982917494
 0
VERTEX
 8
VUE_1
 10
7963.6694465880
 20
9245.5091341358
 0
VERTEX
 8
VUE_1
 10
7964.6507581049
 20
9250.1055137313
 0
VERTEX
 8
VUE_1
 10
7965.6938760124
 20
9254.6855070982
 0
VERTEX
 8
VUE_1
 10
7966.8007312695
 20
9259.2471907989
 0
VERTEX
 8
VUE_1
 10
7967.9732548353
 20
9263.7886413955
 0
VERTEX
 8
VUE_1
 10
7969.2133776687
 20
9268.3079354505
 0
VERTEX
 8
VUE_1
 10
7970.5230307287
 20
9272.8031495260
 0
VERTEX
 8
VUE_1
 10
7971.9041449743
 20
9277.2723601845
 0
VERTEX
 8
VUE_1
 10
7973.3586513644
 20
9281.7136439882
 0
VERTEX
 8
VUE_1
 10
7974.8884808581
 20
9286.1250774994
 0
VERTEX
 8
VUE_1
 10
7976.4955644143
 20
9290.5047372804
 0
VERTEX
 8
VUE_1
 10
7978.1818329920
 20
9294.8506998936
 0
VERTEX
 8
VUE_1
 10
7979.9492175501
 20
9299.1610419011
 0
VERTEX
 8
VUE_1
 10
7981.7996490477
 20
9303.4338398654
 0
SEQEND
 0
POLYLINE
 8
VUE_1
 66
1
 0
VERTEX
 8
VUE_1
 10
7981.7996490477
 20
9303.4338398654
 0
VERTEX
 8
VUE_1
 10
7983.8820193913
 20
9307.9820227691
 0
VERTEX
 8
VUE_1
 10
7986.0592110905
 20
9312.4854161453
 0
VERTEX
 8
VUE_1
 10
7988.3279093961
 20
9316.9448091986
 0
VERTEX
 8
VUE_1
 10
7990.6847995589
 20
9321.3609911335
 0
VERTEX
 8
VUE_1
 10
7993.1265668297
 20
9325.7347511545
 0
VERTEX
 8
VUE_1
 10
7995.6498964593
 20
9330.0668784659
 0
VERTEX
 8
VUE_1
 10
7998.2514736986
 20
9334.3581622724
 0
VERTEX
 8
VUE_1
 10
8000.9279837984
 20
9338.6093917784
 0
VERTEX
 8
VUE_1
 10
8003.6761120094
 20
9342.8213561883
 0
VERTEX
 8
VUE_1
 10
8006.4925435825
 20
9346.9948447067
 0
VERTEX
 8
VUE_1
 10
8009.3739637684
 20
9351.1306465381
 0
VERTEX
 8
VUE_1
 10
8012.3170578181
 20
9355.2295508868
 0
VERTEX
 8
VUE_1
 10
8015.3185109822
 20
9359.2923469575
 0
VERTEX
 8
VUE_1
 10
8018.3750085117
 20
9363.3198239546
 0
VERTEX
 8
VUE_1
 10
8021.4832356573
 20
9367.3127710825
 0
VERTEX
 8
VUE_1
 10
8024.6398776698
 20
9371.2719775458
 0
VERTEX
 8
VUE_1
 10
8027.8416198000
 20
9375.1982325490
 0
VERTEX
 8
VUE_1
 10
8031.0851472987
 20
9379.0923252965
 0
VERTEX
 8
VUE_1
 10
8034.3671454169
 20
9382.9550449927
 0
VERTEX
 8
VUE_1
 10
8037.6842994051
 20
9386.7871808423
 0
SEQEND
 0
POLYLINE
 8
VUE_1
 66
1
 0
VERTEX
 8
VUE_1
 10
8037.6842994051
 20
9386.7871808423
 0
VERTEX
 8
VUE_1
 10
8041.0277370246
 20
9390.5819036279
 0
VERTEX
 8
VUE_1
 10
8044.4040256871
 20
9394.3445478370
 0
VERTEX
 8
VUE_1
 10
8047.8142943786
 20
9398.0727181237
 0
VERTEX
 8
VUE_1
 10
8051.2596720850
 20
9401.7640191421
 0
VERTEX
 8
VUE_1
 10
8054.7412877926
 20
9405.4160555464
 0
VERTEX
 8
VUE_1
 10
8058.2602704872
 20
9409.0264319908
 0
VERTEX
 8
VUE_1
 10
8061.8177491549
 20
9412.5927531293
 0
VERTEX
 8
VUE_1
 10
8065.4148527817
 20
9416.1126236161
 0
VERTEX
 8
VUE_1
 10
8069.0527103536
 20
9419.5836481053
 0
VERTEX
 8
VUE_1
 10
8072.7324508568
 20
9423.0034312510
 0
VERTEX
 8
VUE_1
 10
8076.4552032771
 20
9426.3695777074
 0
VERTEX
 8
VUE_1
 10
8080.2220966006
 20
9429.6796921286
 0
VERTEX
 8
VUE_1
 10
8084.0342598134
 20
9432.9313791687
 0
VERTEX
 8
VUE_1
 10
8087.8928219014
 20
9436.1222434819
 0
VERTEX
 8
VUE_1
 10
8091.7989118507
 20
9439.2498897222
 0
VERTEX
 8
VUE_1
 10
8095.7536586473
 20
9442.3119225439
 0
VERTEX
 8
VUE_1
 10
8099.7581912773
 20
9445.3059466011
 0
VERTEX
 8
VUE_1
 10
8103.8136387266
 20
9448.2295665478
 0
VERTEX
 8
VUE_1
 10
8107.9211299814
 20
9451.0803870382
 0
VERTEX
 8
VUE_1
 10
8112.0817940275
 20
9453.8560127265
 0
SEQEND
 0
POLYLINE
 8
VUE_1
 66
1
 0
VERTEX
 8
VUE_1
 10
8112.0817940275
 20
9453.8560127265
 0
VERTEX
 8
VUE_1
 10
8118.1177378837
 20
9457.6868417480
 0
VERTEX
 8
VUE_1
 10
8124.2591196477
 20
9461.3607357348
 0
VERTEX
 8
VUE_1
 10
8130.5005899551
 20
9464.8790601958
 0
VERTEX
 8
VUE_1
 10
8136.8367994412
 20
9468.2431806396
 0
VERTEX
 8
VUE_1
 10
8143.2623987413
 20
9471.4544625748
 0
VERTEX
 8
VUE_1
 10
8149.7720384910
 20
9474.5142715102
 0
VERTEX
 8
VUE_1
 10
8156.3603693257
 20
9477.4239729545
 0
VERTEX
 8
VUE_1
 10
8163.0220418807
 20
9480.1849324164
 0
VERTEX
 8
VUE_1
 10
8169.7517067916
 20
9482.7985154045
 0
VERTEX
 8
VUE_1
 10
8176.5440146936
 20
9485.2660874276
 0
VERTEX
 8
VUE_1
 10
8183.3936162222
 20
9487.5890139943
 0
VERTEX
 8
VUE_1
 10
8190.2951620128
 20
9489.7686606134
 0
VERTEX
 8
VUE_1
 10
8197.2433027009
 20
9491.8063927935
 0
VERTEX
 8
VUE_1
 10
8204.2326889218
 20
9493.7035760433
 0
VERTEX
 8
VUE_1
 10
8211.2579713110
 20
9495.4615758716
 0
VERTEX
 8
VUE_1
 10
8218.3138005039
 20
9497.0817577870
 0
VERTEX
 8
VUE_1
 10
8225.3948271359
 20
9498.5654872982
 0
VERTEX
 8
VUE_1
 10
8232.4957018424
 20
9499.9141299140
 0
VERTEX
 8
VUE_1
 10
8239.6110752588
 20
9501.1290511429
 0
VERTEX
 8
VUE_1
 10
8246.7355980206
 20
9502.2116164938
 0
SEQEND
 0
POLYLINE
 8
VUE_1
 66
1
 0
VERTEX
 8
VUE_1
 10
8246.7355980206
 20
9502.2116164938
 0
VERTEX
 8
VUE_1
 10
8253.7894126862
 20
9503.1548188190
 0
VERTEX
 8
VUE_1
 10
8260.8467320833
 20
9503.9771301676
 0
VERTEX
 8
VUE_1
 10
8267.9073408568
 20
9504.6858958642
 0
VERTEX
 8
VUE_1
 10
8274.9710236519
 20
9505.2884612334
 0
VERTEX
 8
VUE_1
 10
8282.0375651137
 20
9505.7921715997
 0
VERTEX
 8
VUE_1
 10
8289.1067498873
 20
9506.2043722876
 0
VERTEX
 8
VUE_1
 10
8296.1783626179
 20
9506.5324086219
 0
VERTEX
 8
VUE_1
 10
8303.2521879504
 20
9506.7836259270
 0
VERTEX
 8
VUE_1
 10
8310.3280105301
 20
9506.9653695276
 0
VERTEX
 8
VUE_1
 10
8317.4056150021
 20
9507.0849847482
 0
VERTEX
 8
VUE_1
 10
8324.4847860113
 20
9507.1498169133
 0
VERTEX
 8
VUE_1
 10
8331.5653082030
 20
9507.1672113477
 0
VERTEX
 8
VUE_1
 10
8338.6469662222
 20
9507.1445133758
 0
VERTEX
 8
VUE_1
 10
8345.7295447141
 20
9507.0890683222
 0
VERTEX
 8
VUE_1
 10
8352.8128283238
 20
9507.0082215116
 0
VERTEX
 8
VUE_1
 10
8359.8966016962
 20
9506.9093182684
 0
VERTEX
 8
VUE_1
 10
8366.9806494767
 20
9506.7997039173
 0
VERTEX
 8
VUE_1
 10
8374.0647563102
 20
9506.6867237828
 0
VERTEX
 8
VUE_1
 10
8381.1487068419
 20
9506.5777231896
 0
VERTEX
 8
VUE_1
 10
8388.2322857169
 20
9506.4800474622
 0
SEQEND
 0
POLYLINE
 8
VUE_1
 66
1
 0
VERTEX
 8
VUE_1
 10
8388.2322857169
 20
9506.4800474622
 0
VERTEX
 8
VUE_1
 10
8398.9089367090
 20
9506.3654570565
 0
VERTEX
 8
VUE_1
 10
8409.5843342828
 20
9506.2885320793
 0
VERTEX
 8
VUE_1
 10
8420.2585588364
 20
9506.2445152770
 0
VERTEX
 8
VUE_1
 10
8430.9316907678
 20
9506.2286493960
 0
VERTEX
 8
VUE_1
 10
8441.6038104752
 20
9506.2361771824
 0
VERTEX
 8
VUE_1
 10
8452.2749983567
 20
9506.2623413826
 0
VERTEX
 8
VUE_1
 10
8462.9453348104
 20
9506.3023847430
 0
VERTEX
 8
VUE_1
 10
8473.6149002343
 20
9506.3515500098
 0
VERTEX
 8
VUE_1
 10
8484.2837750267
 20
9506.4050799294
 0
VERTEX
 8
VUE_1
 10
8494.9520395856
 20
9506.4582172480
 0
VERTEX
 8
VUE_1
 10
8505.6197743092
 20
9506.5062047120
 0
VERTEX
 8
VUE_1
 10
8516.2870595955
 20
9506.5442850677
 0
VERTEX
 8
VUE_1
 10
8526.9539758426
 20
9506.5677010614
 0
VERTEX
 8
VUE_1
 10
8537.6206034488
 20
9506.5716954395
 0
VERTEX
 8
VUE_1
 10
8548.2870228120
 20
9506.5515109481
 0
VERTEX
 8
VUE_1
 10
8558.9533143304
 20
9506.5023903337
 0
VERTEX
 8
VUE_1
 10
8569.6195584021
 20
9506.4195763426
 0
VERTEX
 8
VUE_1
 10
8580.2858354252
 20
9506.2983117210
 0
VERTEX
 8
VUE_1
 10
8590.9522257978
 20
9506.1338392154
 0
VERTEX
 8
VUE_1
 10
8601.6188099181
 20
9505.9214015719
 0
SEQEND
 0
POLYLINE
 8
VUE_1
 66
1
 0
VERTEX
 8
VUE_1
 10
9348.3016219601
 20
9439.0224161989
 0
VERTEX
 8
VUE_1
 10
8965.7311188773
 20
9491.0515477677
 0
VERTEX
 8
VUE_1
 10
8601.6188099181
 20
9505.9214015719
 0
SEQEND
 0
POLYLINE
 8
VUE_1
 66
1
 0
VERTEX
 8
VUE_1
 10
8967.9594540496
 20
9456.2541944100
 0
VERTEX
 8
VUE_1
 10
8959.4902086085
 20
9456.2049434249
 0
VERTEX
 8
VUE_1
 10
8951.0205009086
 20
9456.1436199397
 0
VERTEX
 8
VUE_1
 10
8942.5504564106
 20
9456.0694197708
 0
VERTEX
 8
VUE_1
 10
8934.0802005755
 20
9455.9815387343
 0
VERTEX
 8
VUE_1
 10
8925.6098588641
 20
9455.8791726468
 0
VERTEX
 8
VUE_1
 10
8917.1395567375
 20
9455.7615173245
 0
VERTEX
 8
VUE_1
 10
8908.6694196564
 20
9455.6277685836
 0
VERTEX
 8
VUE_1
 10
8900.1995730818
 20
9455.4771222406
 0
VERTEX
 8
VUE_1
 10
8891.7301424745
 20
9455.3087741118
 0
VERTEX
 8
VUE_1
 10
8883.2612532955
 20
9455.1219200134
 0
VERTEX
 8
VUE_1
 10
8874.7930310057
 20
9454.9157557618
 0
VERTEX
 8
VUE_1
 10
8866.3256010659
 20
9454.6894771734
 0
VERTEX
 8
VUE_1
 10
8857.8590889371
 20
9454.4422800644
 0
VERTEX
 8
VUE_1
 10
8849.3936200801
 20
9454.1733602511
 0
VERTEX
 8
VUE_1
 10
8840.9293199559
 20
9453.8819135500
 0
VERTEX
 8
VUE_1
 10
8832.4663140254
 20
9453.5671357773
 0
VERTEX
 8
VUE_1
 10
8824.0047277493
 20
9453.2282227492
 0
VERTEX
 8
VUE_1
 10
8815.5446865888
 20
9452.8643702823
 0
VERTEX
 8
VUE_1
 10
8807.0863160045
 20
9452.4747741927
 0
VERTEX
 8
VUE_1
 10
8798.6297414575
 20
9452.0586302968
 0
SEQEND
 0
POLYLINE
 8
VUE_1
 66
1
 0
VERTEX
 8
VUE_1
 10
8798.6297414575
 20
9452.0586302968
 0
VERTEX
 8
VUE_1
 10
8785.2758218651
 20
9451.3466716302
 0
VERTEX
 8
VUE_1
 10
8771.9262300706
 20
9450.5717539276
 0
VERTEX
 8
VUE_1
 10
8758.5804996750
 20
9449.7391622144
 0
VERTEX
 8
VUE_1
 10
8745.2381642788
 20
9448.8541815158
 0
VERTEX
 8
VUE_1
 10
8731.8987574828
 20
9447.9220968572
 0
VERTEX
 8
VUE_1
 10
8718.5618128878
 20
9446.9481932639
 0
VERTEX
 8
VUE_1
 10
8705.2268640944
 20
9445.9377557613
 0
VERTEX
 8
VUE_1
 10
8691.8934447035
 20
9444.8960693745
 0
VERTEX
 8
VUE_1
 10
8678.5610883156
 20
9443.8284191290
 0
VERTEX
 8
VUE_1
 10
8665.2293285317
 20
9442.7400900500
 0
VERTEX
 8
VUE_1
 10
8651.8976989523
 20
9441.6363671628
 0
VERTEX
 8
VUE_1
 10
8638.5657331782
 20
9440.5225354928
 0
VERTEX
 8
VUE_1
 10
8625.2329648102
 20
9439.4038800653
 0
VERTEX
 8
VUE_1
 10
8611.8989274489
 20
9438.2856859056
 0
VERTEX
 8
VUE_1
 10
8598.5631546952
 20
9437.1732380389
 0
VERTEX
 8
VUE_1
 10
8585.2251801497
 20
9436.0718214907
 0
VERTEX
 8
VUE_1
 10
8571.8845374131
 20
9434.9867212861
 0
VERTEX
 8
VUE_1
 10
8558.5407600863
 20
9433.9232224506
 0
VERTEX
 8
VUE_1
 10
8545.1933817698
 20
9432.8866100094
 0
VERTEX
 8
VUE_1
 10
8531.8419360645
 20
9431.8821689878
 0
SEQEND
 0
POLYLINE
 8
VUE_1
 66
1
 0
VERTEX
 8
VUE_1
 10
8531.8419360645
 20
9431.8821689878
 0
VERTEX
 8
VUE_1
 10
8524.6304200611
 20
9431.3542379010
 0
VERTEX
 8
VUE_1
 10
8517.4180640548
 20
9430.8334270504
 0
VERTEX
 8
VUE_1
 10
8510.2053500853
 20
9430.3159344565
 0
VERTEX
 8
VUE_1
 10
8502.9927601922
 20
9429.7979581394
 0
VERTEX
 8
VUE_1
 10
8495.7807764154
 20
9429.2756961196
 0
VERTEX
 8
VUE_1
 10
8488.5698807943
 20
9428.7453464174
 0
VERTEX
 8
VUE_1
 10
8481.3605553687
 20
9428.2031070529
 0
VERTEX
 8
VUE_1
 10
8474.1532821783
 20
9427.6451760465
 0
VERTEX
 8
VUE_1
 10
8466.9485432627
 20
9427.0677514186
 0
VERTEX
 8
VUE_1
 10
8459.7468206616
 20
9426.4670311894
 0
VERTEX
 8
VUE_1
 10
8452.5485964147
 20
9425.8392133792
 0
VERTEX
 8
VUE_1
 10
8445.3543525616
 20
9425.1804960083
 0
VERTEX
 8
VUE_1
 10
8438.1645711420
 20
9424.4870770970
 0
VERTEX
 8
VUE_1
 10
8430.9797341956
 20
9423.7551546656
 0
VERTEX
 8
VUE_1
 10
8423.8003237620
 20
9422.9809267344
 0
VERTEX
 8
VUE_1
 10
8416.6268218810
 20
9422.1605913238
 0
VERTEX
 8
VUE_1
 10
8409.4597105921
 20
9421.2903464539
 0
VERTEX
 8
VUE_1
 10
8402.2994719350
 20
9420.3663901451
 0
VERTEX
 8
VUE_1
 10
8395.1465879495
 20
9419.3849204178
 0
VERTEX
 8
VUE_1
 10
8388.0015406752
 20
9418.3421352921
 0
SEQEND
 0
POLYLINE
 8
VUE_1
 66
1
 0
VERTEX
 8
VUE_1
 10
8388.0015406752
 20
9418.3421352921
 0
VERTEX
 8
VUE_1
 10
8380.2210650604
 20
9417.1319996781
 0
VERTEX
 8
VUE_1
 10
8372.4508926240
 20
9415.8461152172
 0
VERTEX
 8
VUE_1
 10
8364.6914383797
 20
9414.4861354719
 0
VERTEX
 8
VUE_1
 10
8356.9431173413
 20
9413.0537140043
 0
VERTEX
 8
VUE_1
 10
8349.2063445226
 20
9411.5505043768
 0
VERTEX
 8
VUE_1
 10
8341.4815349373
 20
9409.9781601517
 0
VERTEX
 8
VUE_1
 10
8333.7691035990
 20
9408.3383348912
 0
VERTEX
 8
VUE_1
 10
8326.0694655217
 20
9406.6326821577
 0
VERTEX
 8
VUE_1
 10
8318.3830357189
 20
9404.8628555135
 0
VERTEX
 8
VUE_1
 10
8310.7102292045
 20
9403.0305085208
 0
VERTEX
 8
VUE_1
 10
8303.0514609921
 20
9401.1372947420
 0
VERTEX
 8
VUE_1
 10
8295.4071460956
 20
9399.1848677394
 0
VERTEX
 8
VUE_1
 10
8287.7776995286
 20
9397.1748810751
 0
VERTEX
 8
VUE_1
 10
8280.1635363049
 20
9395.1089883117
 0
VERTEX
 8
VUE_1
 10
8272.5650714382
 20
9392.9888430112
 0
VERTEX
 8
VUE_1
 10
8264.9827199423
 20
9390.8160987361
 0
VERTEX
 8
VUE_1
 10
8257.4168968309
 20
9388.5924090486
 0
VERTEX
 8
VUE_1
 10
8249.8680171178
 20
9386.3194275111
 0
VERTEX
 8
VUE_1
 10
8242.3364958167
 20
9383.9988076858
 0
VERTEX
 8
VUE_1
 10
8234.8227479413
 20
9381.6322031349
 0
SEQEND
 0
POLYLINE
 8
VUE_1
 66
1
 0
VERTEX
 8
VUE_1
 10
9793.8981802215
 20
10824.4142843355
 0
VERTEX
 8
VUE_1
 10
9546.3705141031
 20
10823.3389011073
 0
SEQEND
 0
POLYLINE
 8
VUE_1
 66
1
 0
VERTEX
 8
VUE_1
 10
9736.6889334643
 20
10904.7910832488
 0
VERTEX
 8
VUE_1
 10
9734.8184969022
 20
10451.1466500166
 0
SEQEND
 0
ARC
 8
VUE_1
 10
9546.1062871960
 20
10722.4118876007
 40
100.9249131166
 50
89.8500000000
 51
269.8500000000
 0
POLYLINE
 8
VUE_1
 66
1
 0
VERTEX
 8
VUE_1
 10
9703.2201817579
 20
10552.8943210544
 0
VERTEX
 8
VUE_1
 10
9452.1039132565
 20
9412.1546077834
 0
SEQEND
 0
POLYLINE
 8
VUE_1
 66
1
 0
VERTEX
 8
VUE_1
 10
9811.4695563333
 20
10568.0694450789
 0
VERTEX
 8
VUE_1
 10
9562.0415515919
 20
9434.9989661793
 0
SEQEND
 0
POLYLINE
 8
VUE_1
 66
1
 0
VERTEX
 8
VUE_1
 10
12134.9057279739
 20
8606.8083189134
 0
VERTEX
 8
VUE_1
 10
11060.0617791267
 20
9670.8850921934
 0
SEQEND
 0
POLYLINE
 8
VUE_1
 66
1
 0
VERTEX
 8
VUE_1
 10
11058.3458535497
 20
9015.4512994927
 0
VERTEX
 8
VUE_1
 10
10199.7599269662
 20
9667.1475132894
 0
SEQEND
 0
POLYLINE
 8
VUE_1
 66
1
 0
VERTEX
 8
VUE_1
 10
12132.6680738562
 20
9424.1687345234
 0
VERTEX
 8
VUE_1
 10
10194.9553749449
 20
9430.8641951805
 0
SEQEND
 0
POLYLINE
 8
VUE_1
 66
1
 0
VERTEX
 8
VUE_1
 10
10199.7599269662
 20
9667.1475132894
 0
VERTEX
 8
VUE_1
 10
9795.0313991122
 20
9015.4941445940
 0
SEQEND
 0
POLYLINE
 8
VUE_1
 66
1
 0
VERTEX
 8
VUE_1
 10
9645.0889517897
 20
9014.9236818595
 0
VERTEX
 8
VUE_1
 10
10199.7599269662
 20
9667.1475132894
 0
SEQEND
 0
POLYLINE
 8
VUE_1
 66
1
 0
VERTEX
 8
VUE_1
 10
9645.0889517897
 20
9014.9236818595
 0
VERTEX
 8
VUE_1
 10
9318.7348034340
 20
9388.9380594295
 0
SEQEND
 0
POLYLINE
 8
VUE_1
 66
1
 0
VERTEX
 8
VUE_1
 10
8967.9299034774
 20
8574.7895499481
 0
VERTEX
 8
VUE_1
 10
8959.4606613576
 20
8574.8393687858
 0
VERTEX
 8
VUE_1
 10
8950.9909577883
 20
8574.9012601545
 0
VERTEX
 8
VUE_1
 10
8942.5209182844
 20
8574.9760282296
 0
VERTEX
 8
VUE_1
 10
8934.0506683606
 20
8575.0644771863
 0
VERTEX
 8
VUE_1
 10
8925.5803335319
 20
8575.1674111998
 0
VERTEX
 8
VUE_1
 10
8917.1100393129
 20
8575.2856344455
 0
VERTEX
 8
VUE_1
 10
8908.6399112185
 20
8575.4199510985
 0
VERTEX
 8
VUE_1
 10
8900.1700747636
 20
8575.5711653342
 0
VERTEX
 8
VUE_1
 10
8891.7006554629
 20
8575.7400813278
 0
VERTEX
 8
VUE_1
 10
8883.2317788313
 20
8575.9275032546
 0
VERTEX
 8
VUE_1
 10
8874.7635703836
 20
8576.1342352898
 0
VERTEX
 8
VUE_1
 10
8866.2961556346
 20
8576.3610816088
 0
VERTEX
 8
VUE_1
 10
8857.8296600990
 20
8576.6088463867
 0
VERTEX
 8
VUE_1
 10
8849.3642092919
 20
8576.8783337988
 0
VERTEX
 8
VUE_1
 10
8840.8999287278
 20
8577.1703480204
 0
VERTEX
 8
VUE_1
 10
8832.4369439218
 20
8577.4856932268
 0
VERTEX
 8
VUE_1
 10
8823.9753803885
 20
8577.8251735933
 0
VERTEX
 8
VUE_1
 10
8815.5153636428
 20
8578.1895932950
 0
VERTEX
 8
VUE_1
 10
8807.0570191995
 20
8578.5797565073
 0
VERTEX
 8
VUE_1
 10
8798.6004725734
 20
8578.9964674054
 0
SEQEND
 0
POLYLINE
 8
VUE_1
 66
1
 0
VERTEX
 8
VUE_1
 10
8798.6004725734
 20
8578.9964674054
 0
VERTEX
 8
VUE_1
 10
8785.2466007470
 20
8579.7093214347
 0
VERTEX
 8
VUE_1
 10
8771.8970609399
 20
8580.4851342096
 0
VERTEX
 8
VUE_1
 10
8758.5513863985
 20
8581.3186207361
 0
VERTEX
 8
VUE_1
 10
8745.2091103692
 20
8582.2044960203
 0
VERTEX
 8
VUE_1
 10
8731.8697660983
 20
8583.1374750679
 0
VERTEX
 8
VUE_1
 10
8718.5328868323
 20
8584.1122728851
 0
VERTEX
 8
VUE_1
 10
8705.1980058176
 20
8585.1236044778
 0
VERTEX
 8
VUE_1
 10
8691.8646563004
 20
8586.1661848519
 0
VERTEX
 8
VUE_1
 10
8678.5323715272
 20
8587.2347290135
 0
VERTEX
 8
VUE_1
 10
8665.2006847443
 20
8588.3239519685
 0
VERTEX
 8
VUE_1
 10
8651.8691291982
 20
8589.4285687229
 0
VERTEX
 8
VUE_1
 10
8638.5372381352
 20
8590.5432942827
 0
VERTEX
 8
VUE_1
 10
8625.2045448016
 20
8591.6628436538
 0
VERTEX
 8
VUE_1
 10
8611.8705824439
 20
8592.7819318422
 0
VERTEX
 8
VUE_1
 10
8598.5348843085
 20
8593.8952738539
 0
VERTEX
 8
VUE_1
 10
8585.1969836416
 20
8594.9975846948
 0
VERTEX
 8
VUE_1
 10
8571.8564136897
 20
8596.0835793710
 0
VERTEX
 8
VUE_1
 10
8558.5127076991
 20
8597.1479728883
 0
VERTEX
 8
VUE_1
 10
8545.1653989163
 20
8598.1854802529
 0
VERTEX
 8
VUE_1
 10
8531.8140205876
 20
8599.1908164705
 0
SEQEND
 0
POLYLINE
 8
VUE_1
 66
1
 0
VERTEX
 8
VUE_1
 10
8531.8140205876
 20
8599.1908164705
 0
VERTEX
 8
VUE_1
 10
8524.6025399975
 20
8599.7192310797
 0
VERTEX
 8
VUE_1
 10
8517.3902189272
 20
8600.2405255089
 0
VERTEX
 8
VUE_1
 10
8510.1775396711
 20
8600.7585017055
 0
VERTEX
 8
VUE_1
 10
8502.9649845240
 20
8601.2769616168
 0
VERTEX
 8
VUE_1
 10
8495.7530357804
 20
8601.7997071903
 0
VERTEX
 8
VUE_1
 10
8488.5421757348
 20
8602.3305403732
 0
VERTEX
 8
VUE_1
 10
8481.3328866819
 20
8602.8732631131
 0
VERTEX
 8
VUE_1
 10
8474.1256509163
 20
8603.4316773572
 0
VERTEX
 8
VUE_1
 10
8466.9209507326
 20
8604.0095850529
 0
VERTEX
 8
VUE_1
 10
8459.7192684252
 20
8604.6107881476
 0
VERTEX
 8
VUE_1
 10
8452.5210862889
 20
8605.2390885887
 0
VERTEX
 8
VUE_1
 10
8445.3268866182
 20
8605.8982883235
 0
VERTEX
 8
VUE_1
 10
8438.1371517077
 20
8606.5921892994
 0
VERTEX
 8
VUE_1
 10
8430.9523638519
 20
8607.3245934638
 0
VERTEX
 8
VUE_1
 10
8423.7730053455
 20
8608.0993027641
 0
VERTEX
 8
VUE_1
 10
8416.5995584831
 20
8608.9201191476
 0
VERTEX
 8
VUE_1
 10
8409.4325055592
 20
8609.7908445617
 0
VERTEX
 8
VUE_1
 10
8402.2723288684
 20
8610.7152809538
 0
VERTEX
 8
VUE_1
 10
8395.1195107054
 20
8611.6972302712
 0
VERTEX
 8
VUE_1
 10
8387.9745333646
 20
8612.7404944614
 0
SEQEND
 0
POLYLINE
 8
VUE_1
 66
1
 0
VERTEX
 8
VUE_1
 10
8387.9745333646
 20
8612.7404944614
 0
VERTEX
 8
VUE_1
 10
8380.1941389054
 20
8613.9511517442
 0
VERTEX
 8
VUE_1
 10
8372.4240527034
 20
8615.2375571829
 0
VERTEX
 8
VUE_1
 10
8364.6646896616
 20
8616.5980571872
 0
VERTEX
 8
VUE_1
 10
8356.9164646828
 20
8618.0309981672
 0
VERTEX
 8
VUE_1
 10
8349.1797926699
 20
8619.5347265326
 0
VERTEX
 8
VUE_1
 10
8341.4550885257
 20
8621.1075886934
 0
VERTEX
 8
VUE_1
 10
8333.7427671531
 20
8622.7479310594
 0
VERTEX
 8
VUE_1
 10
8326.0432434550
 20
8624.4541000406
 0
VERTEX
 8
VUE_1
 10
8318.3569323342
 20
8626.2244420467
 0
VERTEX
 8
VUE_1
 10
8310.6842486937
 20
8628.0573034877
 0
VERTEX
 8
VUE_1
 10
8303.0256074363
 20
8629.9510307735
 0
VERTEX
 8
VUE_1
 10
8295.3814234648
 20
8631.9039703139
 0
VERTEX
 8
VUE_1
 10
8287.7521116821
 20
8633.9144685188
 0
VERTEX
 8
VUE_1
 10
8280.1380869912
 20
8635.9808717981
 0
VERTEX
 8
VUE_1
 10
8272.5397642948
 20
8638.1015265617
 0
VERTEX
 8
VUE_1
 10
8264.9575584958
 20
8640.2747792195
 0
VERTEX
 8
VUE_1
 10
8257.3918844972
 20
8642.4989761813
 0
VERTEX
 8
VUE_1
 10
8249.8431572017
 20
8644.7724638571
 0
VERTEX
 8
VUE_1
 10
8242.3117915123
 20
8647.0935886566
 0
VERTEX
 8
VUE_1
 10
8234.7982023317
 20
8649.4606969899
 0
SEQEND
 0
POLYLINE
 8
VUE_1
 66
1
 0
VERTEX
 8
VUE_1
 10
7955.5389795240
 20
9012.8994956361
 0
VERTEX
 8
VUE_1
 10
7955.5244514560
 20
9003.1562882589
 0
VERTEX
 8
VUE_1
 10
7955.4406745203
 20
8993.4113792781
 0
VERTEX
 8
VUE_1
 10
7955.3019156206
 20
8983.6650863789
 0
VERTEX
 8
VUE_1
 10
7955.1224416606
 20
8973.9177272460
 0
VERTEX
 8
VUE_1
 10
7954.9165195437
 20
8964.1696195647
 0
VERTEX
 8
VUE_1
 10
7954.6984161738
 20
8954.4210810199
 0
VERTEX
 8
VUE_1
 10
7954.4823984545
 20
8944.6724292966
 0
VERTEX
 8
VUE_1
 10
7954.2827332893
 20
8934.9239820798
 0
VERTEX
 8
VUE_1
 10
7954.1136875819
 20
8925.1760570545
 0
VERTEX
 8
VUE_1
 10
7953.9895282359
 20
8915.4289719057
 0
VERTEX
 8
VUE_1
 10
7953.9245221551
 20
8905.6830443184
 0
VERTEX
 8
VUE_1
 10
7953.9329362430
 20
8895.9385919777
 0
VERTEX
 8
VUE_1
 10
7954.0290374032
 20
8886.1959325685
 0
VERTEX
 8
VUE_1
 10
7954.2270925395
 20
8876.4553837759
 0
VERTEX
 8
VUE_1
 10
7954.5413685554
 20
8866.7172632847
 0
VERTEX
 8
VUE_1
 10
7954.9861323546
 20
8856.9818887802
 0
VERTEX
 8
VUE_1
 10
7955.5756508407
 20
8847.2495779472
 0
VERTEX
 8
VUE_1
 10
7956.3241909174
 20
8837.5206484708
 0
VERTEX
 8
VUE_1
 10
7957.2460194883
 20
8827.7954180359
 0
VERTEX
 8
VUE_1
 10
7958.3554034570
 20
8818.0742043276
 0
SEQEND
 0
POLYLINE
 8
VUE_1
 66
1
 0
VERTEX
 8
VUE_1
 10
7958.3554034570
 20
8818.0742043276
 0
VERTEX
 8
VUE_1
 10
7958.9578248276
 20
8813.4169369855
 0
VERTEX
 8
VUE_1
 10
7959.6085360720
 20
8808.7625885702
 0
VERTEX
 8
VUE_1
 10
7960.3094682779
 20
8804.1130823901
 0
VERTEX
 8
VUE_1
 10
7961.0625525333
 20
8799.4703417534
 0
VERTEX
 8
VUE_1
 10
7961.8697199262
 20
8794.8362899683
 0
VERTEX
 8
VUE_1
 10
7962.7329015445
 20
8790.2128503430
 0
VERTEX
 8
VUE_1
 10
7963.6540284761
 20
8785.6019461858
 0
VERTEX
 8
VUE_1
 10
7964.6350318090
 20
8781.0055008049
 0
VERTEX
 8
VUE_1
 10
7965.6778426311
 20
8776.4254375084
 0
VERTEX
 8
VUE_1
 10
7966.7843920303
 20
8771.8636796047
 0
VERTEX
 8
VUE_1
 10
7967.9566110947
 20
8767.3221504020
 0
VERTEX
 8
VUE_1
 10
7969.1964309121
 20
8762.8027732085
 0
VERTEX
 8
VUE_1
 10
7970.5057825705
 20
8758.3074713324
 0
VERTEX
 8
VUE_1
 10
7971.8865971577
 20
8753.8381680819
 0
VERTEX
 8
VUE_1
 10
7973.3408057619
 20
8749.3967867653
 0
VERTEX
 8
VUE_1
 10
7974.8703394708
 20
8744.9852506907
 0
VERTEX
 8
VUE_1
 10
7976.4771293724
 20
8740.6054831666
 0
VERTEX
 8
VUE_1
 10
7978.1631065548
 20
8736.2594075009
 0
VERTEX
 8
VUE_1
 10
7979.9302021057
 20
8731.9489470020
 0
VERTEX
 8
VUE_1
 10
7981.7803471132
 20
8727.6760249781
 0
SEQEND
 0
POLYLINE
 8
VUE_1
 66
1
 0
VERTEX
 8
VUE_1
 10
7981.7803471132
 20
8727.6760249781
 0
VERTEX
 8
VUE_1
 10
7983.8624125019
 20
8723.1277024643
 0
VERTEX
 8
VUE_1
 10
7986.0393022490
 20
8718.6241631200
 0
VERTEX
 8
VUE_1
 10
7988.3077015526
 20
8714.1646179632
 0
VERTEX
 8
VUE_1
 10
7990.6642956104
 20
8709.7482780116
 0
VERTEX
 8
VUE_1
 10
7993.1057696204
 20
8705.3743542830
 0
VERTEX
 8
VUE_1
 10
7995.6288087804
 20
8701.0420577950
 0
VERTEX
 8
VUE_1
 10
7998.2300982885
 20
8696.7505995656
 0
VERTEX
 8
VUE_1
 10
8000.9063233424
 20
8692.4991906124
 0
VERTEX
 8
VUE_1
 10
8003.6541691401
 20
8688.2870419532
 0
VERTEX
 8
VUE_1
 10
8006.4703208794
 20
8684.1133646058
 0
VERTEX
 8
VUE_1
 10
8009.3514637584
 20
8679.9773695880
 0
VERTEX
 8
VUE_1
 10
8012.2942829748
 20
8675.8782679175
 0
VERTEX
 8
VUE_1
 10
8015.2954637266
 20
8671.8152706122
 0
VERTEX
 8
VUE_1
 10
8018.3516912117
 20
8667.7875886897
 0
VERTEX
 8
VUE_1
 10
8021.4596506280
 20
8663.7944331678
 0
VERTEX
 8
VUE_1
 10
8024.6160271733
 20
8659.8350150644
 0
VERTEX
 8
VUE_1
 10
8027.8175060457
 20
8655.9085453971
 0
VERTEX
 8
VUE_1
 10
8031.0607724429
 20
8652.0142351837
 0
VERTEX
 8
VUE_1
 10
8034.3425115630
 20
8648.1512954421
 0
VERTEX
 8
VUE_1
 10
8037.6594086037
 20
8644.3189371900
 0
SEQEND
 0
POLYLINE
 8
VUE_1
 66
1
 0
VERTEX
 8
VUE_1
 10
8037.6594086037
 20
8644.3189371900
 0
VERTEX
 8
VUE_1
 10
8041.0025917841
 20
8640.5239902395
 0
VERTEX
 8
VUE_1
 10
8044.3786281582
 20
8636.7611196627
 0
VERTEX
 8
VUE_1
 10
8047.7886468726
 20
8633.0327207300
 0
VERTEX
 8
VUE_1
 10
8051.2337770741
 20
8629.3411887114
 0
VERTEX
 8
VUE_1
 10
8054.7151479091
 20
8625.6889188771
 0
VERTEX
 8
VUE_1
 10
8058.2338885244
 20
8622.0783064974
 0
VERTEX
 8
VUE_1
 10
8061.7911280666
 20
8618.5117468422
 0
VERTEX
 8
VUE_1
 10
8065.3879956822
 20
8614.9916351819
 0
VERTEX
 8
VUE_1
 10
8069.0256205180
 20
8611.5203667865
 0
VERTEX
 8
VUE_1
 10
8072.7051317205
 20
8608.1003369263
 0
VERTEX
 8
VUE_1
 10
8076.4276584364
 20
8604.7339408714
 0
VERTEX
 8
VUE_1
 10
8080.1943298122
 20
8601.4235738920
 0
VERTEX
 8
VUE_1
 10
8084.0062749947
 20
8598.1716312582
 0
VERTEX
 8
VUE_1
 10
8087.8646231305
 20
8594.9805082403
 0
VERTEX
 8
VUE_1
 10
8091.7705033661
 20
8591.8526001083
 0
VERTEX
 8
VUE_1
 10
8095.7250448482
 20
8588.7903021325
 0
VERTEX
 8
VUE_1
 10
8099.7293767235
 20
8585.7960095829
 0
VERTEX
 8
VUE_1
 10
8103.7846281385
 20
8582.8721177299
 0
VERTEX
 8
VUE_1
 10
8107.8919282399
 20
8580.0210218435
 0
VERTEX
 8
VUE_1
 10
8112.0524061743
 20
8577.2451171940
 0
SEQEND
 0
POLYLINE
 8
VUE_1
 66
1
 0
VERTEX
 8
VUE_1
 10
8112.0524061743
 20
8577.2451171940
 0
VERTEX
 8
VUE_1
 10
8118.0880931644
 20
8573.4138834784
 0
VERTEX
 8
VUE_1
 10
8124.2292285845
 20
8569.7395777275
 0
VERTEX
 8
VUE_1
 10
8130.4704629784
 20
8566.2208347913
 0
VERTEX
 8
VUE_1
 10
8136.8064468900
 20
8562.8562895199
 0
VERTEX
 8
VUE_1
 10
8143.2318308631
 20
8559.6445767632
 0
VERTEX
 8
VUE_1
 10
8149.7412654417
 20
8556.5843313711
 0
VERTEX
 8
VUE_1
 10
8156.3294011696
 20
8553.6741881937
 0
VERTEX
 8
VUE_1
 10
8162.9908885906
 20
8550.9127820810
 0
VERTEX
 8
VUE_1
 10
8169.7203782487
 20
8548.2987478828
 0
VERTEX
 8
VUE_1
 10
8176.5125206877
 20
8545.8307204492
 0
VERTEX
 8
VUE_1
 10
8183.3619664515
 20
8543.5073346301
 0
VERTEX
 8
VUE_1
 10
8190.2633660839
 20
8541.3272252756
 0
VERTEX
 8
VUE_1
 10
8197.2113701289
 20
8539.2890272356
 0
VERTEX
 8
VUE_1
 10
8204.2006291303
 20
8537.3913753601
 0
VERTEX
 8
VUE_1
 10
8211.2257936319
 20
8535.6329044990
 0
VERTEX
 8
VUE_1
 10
8218.2815141777
 20
8534.0122495024
 0
VERTEX
 8
VUE_1
 10
8225.3624413115
 20
8532.5280452202
 0
VERTEX
 8
VUE_1
 10
8232.4632255772
 20
8531.1789265023
 0
VERTEX
 8
VUE_1
 10
8239.5785175186
 20
8529.9635281989
 0
VERTEX
 8
VUE_1
 10
8246.7029676797
 20
8528.8804851598
 0
SEQEND
 0
POLYLINE
 8
VUE_1
 66
1
 0
VERTEX
 8
VUE_1
 10
8246.7029676797
 20
8528.8804851598
 0
VERTEX
 8
VUE_1
 10
8253.7567190888
 20
8527.9368098869
 0
VERTEX
 8
VUE_1
 10
8260.8139833350
 20
8527.1140253553
 0
VERTEX
 8
VUE_1
 10
8267.8745445708
 20
8526.4047862550
 0
VERTEX
 8
VUE_1
 10
8274.9381869487
 20
8525.8017472758
 0
VERTEX
 8
VUE_1
 10
8282.0046946215
 20
8525.2975631075
 0
VERTEX
 8
VUE_1
 10
8289.0738517417
 20
8524.8848884401
 0
VERTEX
 8
VUE_1
 10
8296.1454424619
 20
8524.5563779635
 0
VERTEX
 8
VUE_1
 10
8303.2192509347
 20
8524.3046863674
 0
VERTEX
 8
VUE_1
 10
8310.2950613128
 20
8524.1224683419
 0
VERTEX
 8
VUE_1
 10
8317.3726577488
 20
8524.0023785767
 0
VERTEX
 8
VUE_1
 10
8324.4518243952
 20
8523.9370717618
 0
VERTEX
 8
VUE_1
 10
8331.5323454047
 20
8523.9192025870
 0
VERTEX
 8
VUE_1
 10
8338.6140049299
 20
8523.9414257422
 0
VERTEX
 8
VUE_1
 10
8345.6965871234
 20
8523.9963959172
 0
VERTEX
 8
VUE_1
 10
8352.7798761378
 20
8524.0767678021
 0
VERTEX
 8
VUE_1
 10
8359.8636561257
 20
8524.1751960865
 0
VERTEX
 8
VUE_1
 10
8366.9477112397
 20
8524.2843354605
 0
VERTEX
 8
VUE_1
 10
8374.0318256325
 20
8524.3968406139
 0
VERTEX
 8
VUE_1
 10
8381.1157834566
 20
8524.5053662365
 0
VERTEX
 8
VUE_1
 10
8388.1993688647
 20
8524.6025670182
 0
SEQEND
 0
POLYLINE
 8
VUE_1
 66
1
 0
VERTEX
 8
VUE_1
 10
8388.1993688647
 20
8524.6025670182
 0
VERTEX
 8
VUE_1
 10
8398.8760275160
 20
8524.7164415671
 0
VERTEX
 8
VUE_1
 10
8409.5514302236
 20
8524.7926507715
 0
VERTEX
 8
VUE_1
 10
8420.2256577044
 20
8524.8359518797
 0
VERTEX
 8
VUE_1
 10
8430.8987906756
 20
8524.8511021401
 0
VERTEX
 8
VUE_1
 10
8441.5709098543
 20
8524.8428588009
 0
VERTEX
 8
VUE_1
 10
8452.2420959575
 20
8524.8159791104
 0
VERTEX
 8
VUE_1
 10
8462.9124297023
 20
8524.7752203169
 0
VERTEX
 8
VUE_1
 10
8473.5819918058
 20
8524.7253396687
 0
VERTEX
 8
VUE_1
 10
8484.2508629851
 20
8524.6710944140
 0
VERTEX
 8
VUE_1
 10
8494.9191239573
 20
8524.6172418012
 0
VERTEX
 8
VUE_1
 10
8505.5868554393
 20
8524.5685390785
 0
VERTEX
 8
VUE_1
 10
8516.2541381484
 20
8524.5297434942
 0
VERTEX
 8
VUE_1
 10
8526.9210528016
 20
8524.5056122967
 0
VERTEX
 8
VUE_1
 10
8537.5876801159
 20
8524.5009027341
 0
VERTEX
 8
VUE_1
 10
8548.2541008085
 20
8524.5203720548
 0
VERTEX
 8
VUE_1
 10
8558.9203955964
 20
8524.5687775071
 0
VERTEX
 8
VUE_1
 10
8569.5866451967
 20
8524.6508763392
 0
VERTEX
 8
VUE_1
 10
8580.2529303265
 20
8524.7714257994
 0
VERTEX
 8
VUE_1
 10
8590.9193317028
 20
8524.9351831361
 0
VERTEX
 8
VUE_1
 10
8601.5859300428
 20
8525.1469055975
 0
SEQEND
 0
POLYLINE
 8
VUE_1
 66
1
 0
VERTEX
 8
VUE_1
 10
10160.2839320259
 20
9651.4104932693
 0
VERTEX
 8
VUE_1
 10
10043.6302169357
 20
9841.5641428863
 0
SEQEND
 0
POLYLINE
 8
VUE_1
 66
1
 0
VERTEX
 8
VUE_1
 10
10199.7599269662
 20
9667.1475132894
 0
VERTEX
 8
VUE_1
 10
10199.1562687436
 20
9836.4517658495
 0
SEQEND
 0
POLYLINE
 8
VUE_1
 66
1
 0
VERTEX
 8
VUE_1
 10
10222.9545824871
 20
9694.1010321092
 0
VERTEX
 8
VUE_1
 10
10956.7391800687
 20
9839.7430826126
 0
SEQEND
 0
POLYLINE
 8
VUE_1
 66
1
 0
VERTEX
 8
VUE_1
 10
12132.6680738562
 20
9424.1687345234
 0
VERTEX
 8
VUE_1
 10
11060.0617791267
 20
9670.8850921934
 0
SEQEND
 0
POLYLINE
 8
VUE_1
 66
1
 0
VERTEX
 8
VUE_1
 10
14571.1621370398
 20
8763.3043642721
 0
VERTEX
 8
VUE_1
 10
15269.2734541432
 20
9222.4737032410
 0
SEQEND
 0
POLYLINE
 8
VUE_1
 66
1
 0
VERTEX
 8
VUE_1
 10
15269.2734541432
 20
9222.4737032410
 0
VERTEX
 8
VUE_1
 10
15647.5554253919
 20
9016.9560921727
 0
SEQEND
 0
POINT
 8
VUE_1
 10
15640.2568410875
 20
9015.2981869255
 0
POINT
 8
VUE_1
 10
16384.7728169401
 20
11414.2759718446
 0
POINT
 8
VUE_1
 10
16496.4094272611
 20
11419.3732346512
 0
POINT
 8
VUE_1
 10
16666.9298206966
 20
11357.2459405024
 0
POINT
 8
VUE_1
 10
16964.4694576957
 20
10929.6939333179
 0
POINT
 8
VUE_1
 10
16847.3746605421
 20
11177.7193699471
 0
POINT
 8
VUE_1
 10
17058.5749721444
 20
10638.2975022209
 0
POINT
 8
VUE_1
 10
17088.2206375700
 20
10336.1491739129
 0
POINT
 8
VUE_1
 10
17093.8015876766
 20
10034.9019543701
 0
POINT
 8
VUE_1
 10
17026.2578198754
 20
9723.8432306291
 0
POINT
 8
VUE_1
 10
16851.8186910648
 20
9435.6117420711
 0
POINT
 8
VUE_1
 10
16643.4174084452
 20
9255.0932442610
 0
POINT
 8
VUE_1
 10
16472.9658941092
 20
11176.7642716745
 0
POINT
 8
VUE_1
 10
16147.2537246406
 20
10951.6716729771
 0
POINT
 8
VUE_1
 10
16195.7563819650
 20
11180.8696072264
 0
POINT
 8
VUE_1
 10
16152.9083327116
 20
10621.5497413700
 0
POINT
 8
VUE_1
 10
16012.4240182467
 20
10605.7914261754
 0
POINT
 8
VUE_1
 10
15573.0519680341
 20
9282.2001915113
 0
POLYLINE
 8
VUE_1
 66
1
 0
VERTEX
 8
VUE_1
 10
16472.9658941092
 20
11176.7642716745
 0
VERTEX
 8
VUE_1
 10
16468.4675844144
 20
9167.0597593484
 0
SEQEND
 0
POLYLINE
 8
VUE_1
 66
1
 0
VERTEX
 8
VUE_1
 10
16847.3746605421
 20
11177.7193699471
 0
VERTEX
 8
VUE_1
 10
16195.7563819650
 20
11180.8696072264
 0
SEQEND
 0
POLYLINE
 8
VUE_1
 66
1
 0
VERTEX
 8
VUE_1
 10
16384.7728169401
 20
11414.2759718446
 0
VERTEX
 8
VUE_1
 10
16366.4313254600
 20
9171.6119532180
 0
SEQEND
 0
POLYLINE
 8
VUE_1
 66
1
 0
VERTEX
 8
VUE_1
 10
16012.4240182467
 20
10605.7914261754
 0
VERTEX
 8
VUE_1
 10
15573.0519680341
 20
9282.2001915113
 0
SEQEND
 0
POLYLINE
 8
VUE_1
 66
1
 0
VERTEX
 8
VUE_1
 10
16317.3295833579
 20
9177.2616770913
 0
VERTEX
 8
VUE_1
 10
16323.2307145658
 20
10612.6392949074
 0
SEQEND
 0
POLYLINE
 8
VUE_1
 66
1
 0
VERTEX
 8
VUE_1
 10
16147.2537246406
 20
10951.6716729771
 0
VERTEX
 8
VUE_1
 10
16147.3636278367
 20
10963.3527601748
 0
VERTEX
 8
VUE_1
 10
16147.7495133237
 20
10974.9729050174
 0
VERTEX
 8
VUE_1
 10
16148.4060021175
 20
10986.5383840291
 0
VERTEX
 8
VUE_1
 10
16149.3277152341
 20
10998.0554737345
 0
VERTEX
 8
VUE_1
 10
16150.5092736893
 20
11009.5304506578
 0
VERTEX
 8
VUE_1
 10
16151.9452984991
 20
11020.9695913234
 0
VERTEX
 8
VUE_1
 10
16153.6304106792
 20
11032.3791722556
 0
VERTEX
 8
VUE_1
 10
16155.5592312457
 20
11043.7654699789
 0
VERTEX
 8
VUE_1
 10
16157.7263812144
 20
11055.1347610176
 0
VERTEX
 8
VUE_1
 10
16160.1264816013
 20
11066.4933218961
 0
VERTEX
 8
VUE_1
 10
16162.7541534221
 20
11077.8474291386
 0
VERTEX
 8
VUE_1
 10
16165.6040176930
 20
11089.2033592697
 0
VERTEX
 8
VUE_1
 10
16168.6706954296
 20
11100.5673888136
 0
VERTEX
 8
VUE_1
 10
16171.9488076480
 20
11111.9457942946
 0
VERTEX
 8
VUE_1
 10
16175.4329753640
 20
11123.3448522372
 0
VERTEX
 8
VUE_1
 10
16179.1178195935
 20
11134.7708391658
 0
VERTEX
 8
VUE_1
 10
16182.9979613525
 20
11146.2300316046
 0
VERTEX
 8
VUE_1
 10
16187.0680216568
 20
11157.7287060781
 0
VERTEX
 8
VUE_1
 10
16191.3226215223
 20
11169.2731391106
 0
VERTEX
 8
VUE_1
 10
16195.7563819650
 20
11180.8696072264
 0
SEQEND
 0
POLYLINE
 8
VUE_1
 66
1
 0
VERTEX
 8
VUE_1
 10
16195.7563819650
 20
11180.8696072264
 0
VERTEX
 8
VUE_1
 10
16201.6978836549
 20
11195.8099432884
 0
VERTEX
 8
VUE_1
 10
16207.9369753486
 20
11210.7832537864
 0
VERTEX
 8
VUE_1
 10
16214.4856257308
 20
11225.7266742473
 0
VERTEX
 8
VUE_1
 10
16221.3558034860
 20
11240.5773401977
 0
VERTEX
 8
VUE_1
 10
16228.5594772989
 20
11255.2723871646
 0
VERTEX
 8
VUE_1
 10
16236.1086158540
 20
11269.7489506746
 0
VERTEX
 8
VUE_1
 10
16244.0151878360
 20
11283.9441662546
 0
VERTEX
 8
VUE_1
 10
16252.2911619295
 20
11297.7951694313
 0
VERTEX
 8
VUE_1
 10
16260.9485068190
 20
11311.2390957315
 0
VERTEX
 8
VUE_1
 10
16269.9991911892
 20
11324.2130806819
 0
VERTEX
 8
VUE_1
 10
16279.4551837247
 20
11336.6542598095
 0
VERTEX
 8
VUE_1
 10
16289.3284531100
 20
11348.4997686409
 0
VERTEX
 8
VUE_1
 10
16299.6309680298
 20
11359.6867427029
 0
VERTEX
 8
VUE_1
 10
16310.3746971687
 20
11370.1523175224
 0
VERTEX
 8
VUE_1
 10
16321.5716092112
 20
11379.8336286261
 0
VERTEX
 8
VUE_1
 10
16333.2336728421
 20
11388.6678115407
 0
VERTEX
 8
VUE_1
 10
16345.3728567458
 20
11396.5920017931
 0
VERTEX
 8
VUE_1
 10
16358.0011296070
 20
11403.5433349100
 0
VERTEX
 8
VUE_1
 10
16371.1304601103
 20
11409.4589464182
 0
VERTEX
 8
VUE_1
 10
16384.7728169401
 20
11414.2759718446
 0
SEQEND
 0
POLYLINE
 8
VUE_1
 66
1
 0
VERTEX
 8
VUE_1
 10
16384.7728169401
 20
11414.2759718446
 0
VERTEX
 8
VUE_1
 10
16389.9814047376
 20
11415.7764397437
 0
VERTEX
 8
VUE_1
 10
16395.2579057670
 20
11417.1203487313
 0
VERTEX
 8
VUE_1
 10
16400.5975492737
 20
11418.3119392445
 0
VERTEX
 8
VUE_1
 10
16405.9955645041
 20
11419.3554517199
 0
VERTEX
 8
VUE_1
 10
16411.4471807040
 20
11420.2551265944
 0
VERTEX
 8
VUE_1
 10
16416.9476271192
 20
11421.0152043049
 0
VERTEX
 8
VUE_1
 10
16422.4921329956
 20
11421.6399252881
 0
VERTEX
 8
VUE_1
 10
16428.0759275794
 20
11422.1335299810
 0
VERTEX
 8
VUE_1
 10
16433.6942401163
 20
11422.5002588203
 0
VERTEX
 8
VUE_1
 10
16439.3422998522
 20
11422.7443522428
 0
VERTEX
 8
VUE_1
 10
16445.0153360330
 20
11422.8700506855
 0
VERTEX
 8
VUE_1
 10
16450.7085779048
 20
11422.8815945851
 0
VERTEX
 8
VUE_1
 10
16456.4172547134
 20
11422.7832243785
 0
VERTEX
 8
VUE_1
 10
16462.1365957046
 20
11422.5791805024
 0
VERTEX
 8
VUE_1
 10
16467.8618301245
 20
11422.2737033938
 0
VERTEX
 8
VUE_1
 10
16473.5881872190
 20
11421.8710334894
 0
VERTEX
 8
VUE_1
 10
16479.3108962340
 20
11421.3754112262
 0
VERTEX
 8
VUE_1
 10
16485.0251864155
 20
11420.7910770408
 0
VERTEX
 8
VUE_1
 10
16490.7262870092
 20
11420.1222713702
 0
VERTEX
 8
VUE_1
 10
16496.4094272611
 20
11419.3732346512
 0
SEQEND
 0
POLYLINE
 8
VUE_1
 66
1
 0
VERTEX
 8
VUE_1
 10
16496.4094272611
 20
11419.3732346512
 0
VERTEX
 8
VUE_1
 10
16505.5914287898
 20
11417.9941913008
 0
VERTEX
 8
VUE_1
 10
16514.7121805056
 20
11416.4173904596
 0
VERTEX
 8
VUE_1
 10
16523.7703822574
 20
11414.6454878258
 0
VERTEX
 8
VUE_1
 10
16532.7647338936
 20
11412.6811390978
 0
VERTEX
 8
VUE_1
 10
16541.6939352624
 20
11410.5269999740
 0
VERTEX
 8
VUE_1
 10
16550.5566862125
 20
11408.1857261527
 0
VERTEX
 8
VUE_1
 10
16559.3516865925
 20
11405.6599733323
 0
VERTEX
 8
VUE_1
 10
16568.0776362506
 20
11402.9523972112
 0
VERTEX
 8
VUE_1
 10
16576.7332350356
 20
11400.0656534877
 0
VERTEX
 8
VUE_1
 10
16585.3171827956
 20
11397.0023978602
 0
VERTEX
 8
VUE_1
 10
16593.8281793792
 20
11393.7652860270
 0
VERTEX
 8
VUE_1
 10
16602.2649246352
 20
11390.3569736865
 0
VERTEX
 8
VUE_1
 10
16610.6261184116
 20
11386.7801165371
 0
VERTEX
 8
VUE_1
 10
16618.9104605573
 20
11383.0373702771
 0
VERTEX
 8
VUE_1
 10
16627.1166509204
 20
11379.1313906048
 0
VERTEX
 8
VUE_1
 10
16635.2433893496
 20
11375.0648332186
 0
VERTEX
 8
VUE_1
 10
16643.2893756933
 20
11370.8403538169
 0
VERTEX
 8
VUE_1
 10
16651.2533098000
 20
11366.4606080981
 0
VERTEX
 8
VUE_1
 10
16659.1338915184
 20
11361.9282517605
 0
VERTEX
 8
VUE_1
 10
16666.9298206966
 20
11357.2459405024
 0
SEQEND
 0
POLYLINE
 8
VUE_1
 66
1
 0
VERTEX
 8
VUE_1
 10
16666.9298206966
 20
11357.2459405024
 0
VERTEX
 8
VUE_1
 10
16677.7189377694
 20
11350.4315435630
 0
VERTEX
 8
VUE_1
 10
16688.3365622532
 20
11343.3362782310
 0
VERTEX
 8
VUE_1
 10
16698.7802784380
 20
11335.9690272808
 0
VERTEX
 8
VUE_1
 10
16709.0476706133
 20
11328.3386734867
 0
VERTEX
 8
VUE_1
 10
16719.1363230688
 20
11320.4540996232
 0
VERTEX
 8
VUE_1
 10
16729.0438200944
 20
11312.3241884648
 0
VERTEX
 8
VUE_1
 10
16738.7677459797
 20
11303.9578227857
 0
VERTEX
 8
VUE_1
 10
16748.3056850144
 20
11295.3638853605
 0
VERTEX
 8
VUE_1
 10
16757.6552214881
 20
11286.5512589636
 0
VERTEX
 8
VUE_1
 10
16766.8139396908
 20
11277.5288263694
 0
VERTEX
 8
VUE_1
 10
16775.7794239120
 20
11268.3054703523
 0
VERTEX
 8
VUE_1
 10
16784.5492584415
 20
11258.8900736867
 0
VERTEX
 8
VUE_1
 10
16793.1210275689
 20
11249.2915191470
 0
VERTEX
 8
VUE_1
 10
16801.4923155842
 20
11239.5186895078
 0
VERTEX
 8
VUE_1
 10
16809.6607067768
 20
11229.5804675432
 0
VERTEX
 8
VUE_1
 10
16817.6237854368
 20
11219.4857360279
 0
VERTEX
 8
VUE_1
 10
16825.3791358535
 20
11209.2433777363
 0
VERTEX
 8
VUE_1
 10
16832.9243423168
 20
11198.8622754426
 0
VERTEX
 8
VUE_1
 10
16840.2569891164
 20
11188.3513119214
 0
VERTEX
 8
VUE_1
 10
16847.3746605421
 20
11177.7193699471
 0
SEQEND
 0
POLYLINE
 8
VUE_1
 66
1
 0
VERTEX
 8
VUE_1
 10
16847.3746605421
 20
11177.7193699471
 0
VERTEX
 8
VUE_1
 10
16854.8034287740
 20
11166.1369710032
 0
VERTEX
 8
VUE_1
 10
16861.9921736195
 20
11154.4306973753
 0
VERTEX
 8
VUE_1
 10
16868.9532844433
 20
11142.6068286531
 0
VERTEX
 8
VUE_1
 10
16875.6991506105
 20
11130.6716444262
 0
VERTEX
 8
VUE_1
 10
16882.2421614860
 20
11118.6314242843
 0
VERTEX
 8
VUE_1
 10
16888.5947064344
 20
11106.4924478170
 0
VERTEX
 8
VUE_1
 10
16894.7691748207
 20
11094.2609946140
 0
VERTEX
 8
VUE_1
 10
16900.7779560096
 20
11081.9433442649
 0
VERTEX
 8
VUE_1
 10
16906.6334393662
 20
11069.5457763595
 0
VERTEX
 8
VUE_1
 10
16912.3480142553
 20
11057.0745704873
 0
VERTEX
 8
VUE_1
 10
16917.9340700416
 20
11044.5360062380
 0
VERTEX
 8
VUE_1
 10
16923.4039960900
 20
11031.9363632013
 0
VERTEX
 8
VUE_1
 10
16928.7701817652
 20
11019.2819209668
 0
VERTEX
 8
VUE_1
 10
16934.0450164325
 20
11006.5789591241
 0
VERTEX
 8
VUE_1
 10
16939.2408894564
 20
10993.8337572630
 0
VERTEX
 8
VUE_1
 10
16944.3701902018
 20
10981.0525949730
 0
VERTEX
 8
VUE_1
 10
16949.4453080336
 20
10968.2417518439
 0
VERTEX
 8
VUE_1
 10
16954.4786323166
 20
10955.4075074652
 0
VERTEX
 8
VUE_1
 10
16959.4825524156
 20
10942.5561414267
 0
VERTEX
 8
VUE_1
 10
16964.4694576957
 20
10929.6939333179
 0
SEQEND
 0
POLYLINE
 8
VUE_1
 66
1
 0
VERTEX
 8
VUE_1
 10
16964.4694576957
 20
10929.6939333179
 0
VERTEX
 8
VUE_1
 10
16970.0272956287
 20
10915.3270481675
 0
VERTEX
 8
VUE_1
 10
16975.5673713068
 20
10900.9522368515
 0
VERTEX
 8
VUE_1
 10
16981.0776878740
 20
10886.5672601096
 0
VERTEX
 8
VUE_1
 10
16986.5462484744
 20
10872.1698786817
 0
VERTEX
 8
VUE_1
 10
16991.9610562521
 20
10857.7578533076
 0
VERTEX
 8
VUE_1
 10
16997.3101143509
 20
10843.3289447271
 0
VERTEX
 8
VUE_1
 10
17002.5814259153
 20
10828.8809136800
 0
VERTEX
 8
VUE_1
 10
17007.7629940890
 20
10814.4115209061
 0
VERTEX
 8
VUE_1
 10
17012.8428220161
 20
10799.9185271452
 0
VERTEX
 8
VUE_1
 10
17017.8089128409
 20
10785.3996931372
 0
VERTEX
 8
VUE_1
 10
17022.6492697071
 20
10770.8527796218
 0
VERTEX
 8
VUE_1
 10
17027.3518957591
 20
10756.2755473388
 0
VERTEX
 8
VUE_1
 10
17031.9047941407
 20
10741.6657570282
 0
VERTEX
 8
VUE_1
 10
17036.2959679960
 20
10727.0211694296
 0
VERTEX
 8
VUE_1
 10
17040.5134204692
 20
10712.3395452829
 0
VERTEX
 8
VUE_1
 10
17044.5451547043
 20
10697.6186453278
 0
VERTEX
 8
VUE_1
 10
17048.3791738452
 20
10682.8562303043
 0
VERTEX
 8
VUE_1
 10
17052.0034810363
 20
10668.0500609521
 0
VERTEX
 8
VUE_1
 10
17055.4060794212
 20
10653.1978980110
 0
VERTEX
 8
VUE_1
 10
17058.5749721444
 20
10638.2975022209
 0
SEQEND
 0
POLYLINE
 8
VUE_1
 66
1
 0
VERTEX
 8
VUE_1
 10
17058.5749721444
 20
10638.2975022209
 0
VERTEX
 8
VUE_1
 10
17061.4784015763
 20
10623.4754077785
 0
VERTEX
 8
VUE_1
 10
17064.1534411600
 20
10608.6064969760
 0
VERTEX
 8
VUE_1
 10
17066.6132234816
 20
10593.6935668914
 0
VERTEX
 8
VUE_1
 10
17068.8708811270
 20
10578.7394146027
 0
VERTEX
 8
VUE_1
 10
17070.9395466820
 20
10563.7468371881
 0
VERTEX
 8
VUE_1
 10
17072.8323527327
 20
10548.7186317255
 0
VERTEX
 8
VUE_1
 10
17074.5624318646
 20
10533.6575952929
 0
VERTEX
 8
VUE_1
 10
17076.1429166640
 20
10518.5665249685
 0
VERTEX
 8
VUE_1
 10
17077.5869397165
 20
10503.4482178302
 0
VERTEX
 8
VUE_1
 10
17078.9076336081
 20
10488.3054709561
 0
VERTEX
 8
VUE_1
 10
17080.1181309248
 20
10473.1410814242
 0
VERTEX
 8
VUE_1
 10
17081.2315642522
 20
10457.9578463126
 0
VERTEX
 8
VUE_1
 10
17082.2610661764
 20
10442.7585626992
 0
VERTEX
 8
VUE_1
 10
17083.2197692834
 20
10427.5460276622
 0
VERTEX
 8
VUE_1
 10
17084.1208061588
 20
10412.3230382795
 0
VERTEX
 8
VUE_1
 10
17084.9773093887
 20
10397.0923916292
 0
VERTEX
 8
VUE_1
 10
17085.8024115588
 20
10381.8568847894
 0
VERTEX
 8
VUE_1
 10
17086.6092452552
 20
10366.6193148381
 0
VERTEX
 8
VUE_1
 10
17087.4109430636
 20
10351.3824788532
 0
VERTEX
 8
VUE_1
 10
17088.2206375700
 20
10336.1491739129
 0
SEQEND
 0
POLYLINE
 8
VUE_1
 66
1
 0
VERTEX
 8
VUE_1
 10
17088.2206375700
 20
10336.1491739129
 0
VERTEX
 8
VUE_1
 10
17089.0410624809
 20
10321.0370578910
 0
VERTEX
 8
VUE_1
 10
17089.8711837903
 20
10305.9310322875
 0
VERTEX
 8
VUE_1
 10
17090.6998875829
 20
10290.8309549283
 0
VERTEX
 8
VUE_1
 10
17091.5160599428
 20
10275.7366836391
 0
VERTEX
 8
VUE_1
 10
17092.3085869544
 20
10260.6480762458
 0
VERTEX
 8
VUE_1
 10
17093.0663547022
 20
10245.5649905740
 0
VERTEX
 8
VUE_1
 10
17093.7782492701
 20
10230.4872844496
 0
VERTEX
 8
VUE_1
 10
17094.4331567430
 20
10215.4148156984
 0
VERTEX
 8
VUE_1
 10
17095.0199632048
 20
10200.3474421460
 0
VERTEX
 8
VUE_1
 10
17095.5275547399
 20
10185.2850216184
 0
VERTEX
 8
VUE_1
 10
17095.9448174327
 20
10170.2274119412
 0
VERTEX
 8
VUE_1
 10
17096.2606373675
 20
10155.1744709402
 0
VERTEX
 8
VUE_1
 10
17096.4639006286
 20
10140.1260564413
 0
VERTEX
 8
VUE_1
 10
17096.5434933004
 20
10125.0820262701
 0
VERTEX
 8
VUE_1
 10
17096.4883014671
 20
10110.0422382525
 0
VERTEX
 8
VUE_1
 10
17096.2872112131
 20
10095.0065502142
 0
VERTEX
 8
VUE_1
 10
17095.9291086228
 20
10079.9748199811
 0
VERTEX
 8
VUE_1
 10
17095.4028797804
 20
10064.9469053788
 0
VERTEX
 8
VUE_1
 10
17094.6974107702
 20
10049.9226642332
 0
VERTEX
 8
VUE_1
 10
17093.8015876766
 20
10034.9019543701
 0
SEQEND
 0
POLYLINE
 8
VUE_1
 66
1
 0
VERTEX
 8
VUE_1
 10
17093.8015876766
 20
10034.9019543701
 0
VERTEX
 8
VUE_1
 10
17092.6381083048
 20
10019.0377069262
 0
VERTEX
 8
VUE_1
 10
17091.2486062194
 20
10003.1813830366
 0
VERTEX
 8
VUE_1
 10
17089.6319148728
 20
9987.3371237097
 0
VERTEX
 8
VUE_1
 10
17087.7868677164
 20
9971.5090699543
 0
VERTEX
 8
VUE_1
 10
17085.7122982026
 20
9955.7013627789
 0
VERTEX
 8
VUE_1
 10
17083.4070397830
 20
9939.9181431922
 0
VERTEX
 8
VUE_1
 10
17080.8699259095
 20
9924.1635522029
 0
VERTEX
 8
VUE_1
 10
17078.0997900342
 20
9908.4417308195
 0
VERTEX
 8
VUE_1
 10
17075.0954656088
 20
9892.7568200508
 0
VERTEX
 8
VUE_1
 10
17071.8557860854
 20
9877.1129609053
 0
VERTEX
 8
VUE_1
 10
17068.3795849156
 20
9861.5142943916
 0
VERTEX
 8
VUE_1
 10
17064.6656955518
 20
9845.9649615186
 0
VERTEX
 8
VUE_1
 10
17060.7129514455
 20
9830.4691032946
 0
VERTEX
 8
VUE_1
 10
17056.5201860488
 20
9815.0308607285
 0
VERTEX
 8
VUE_1
 10
17052.0862328135
 20
9799.6543748288
 0
VERTEX
 8
VUE_1
 10
17047.4099251915
 20
9784.3437866042
 0
VERTEX
 8
VUE_1
 10
17042.4900966348
 20
9769.1032370633
 0
VERTEX
 8
VUE_1
 10
17037.3255805953
 20
9753.9368672147
 0
VERTEX
 8
VUE_1
 10
17031.9152105249
 20
9738.8488180671
 0
VERTEX
 8
VUE_1
 10
17026.2578198754
 20
9723.8432306291
 0
SEQEND
 0
POLYLINE
 8
VUE_1
 66
1
 0
VERTEX
 8
VUE_1
 10
17026.2578198754
 20
9723.8432306291
 0
VERTEX
 8
VUE_1
 10
17020.0001380442
 20
9708.0555757310
 0
VERTEX
 8
VUE_1
 10
17013.4670802908
 20
9692.3717731505
 0
VERTEX
 8
VUE_1
 10
17006.6613097146
 20
9676.7986559306
 0
VERTEX
 8
VUE_1
 10
16999.5854894145
 20
9661.3430571143
 0
VERTEX
 8
VUE_1
 10
16992.2422824897
 20
9646.0118097447
 0
VERTEX
 8
VUE_1
 10
16984.6343520394
 20
9630.8117468648
 0
VERTEX
 8
VUE_1
 10
16976.7643611628
 20
9615.7497015177
 0
VERTEX
 8
VUE_1
 10
16968.6349729588
 20
9600.8325067464
 0
VERTEX
 8
VUE_1
 10
16960.2488505266
 20
9586.0669955940
 0
VERTEX
 8
VUE_1
 10
16951.6086569653
 20
9571.4600011035
 0
VERTEX
 8
VUE_1
 10
16942.7170553743
 20
9557.0183563179
 0
VERTEX
 8
VUE_1
 10
16933.5767088524
 20
9542.7488942802
 0
VERTEX
 8
VUE_1
 10
16924.1902804988
 20
9528.6584480336
 0
VERTEX
 8
VUE_1
 10
16914.5604334128
 20
9514.7538506210
 0
VERTEX
 8
VUE_1
 10
16904.6898306934
 20
9501.0419350856
 0
VERTEX
 8
VUE_1
 10
16894.5811354396
 20
9487.5295344702
 0
VERTEX
 8
VUE_1
 10
16884.2370107508
 20
9474.2234818181
 0
VERTEX
 8
VUE_1
 10
16873.6601197260
 20
9461.1306101722
 0
VERTEX
 8
VUE_1
 10
16862.8531254642
 20
9448.2577525755
 0
VERTEX
 8
VUE_1
 10
16851.8186910648
 20
9435.6117420711
 0
SEQEND
 0
POLYLINE
 8
VUE_1
 66
1
 0
VERTEX
 8
VUE_1
 10
16851.8186910648
 20
9435.6117420711
 0
VERTEX
 8
VUE_1
 10
16842.6213861510
 20
9425.4347597591
 0
VERTEX
 8
VUE_1
 10
16833.2766607092
 20
9415.4092305719
 0
VERTEX
 8
VUE_1
 10
16823.7876329110
 20
9405.5301063121
 0
VERTEX
 8
VUE_1
 10
16814.1574209284
 20
9395.7923387819
 0
VERTEX
 8
VUE_1
 10
16804.3891429336
 20
9386.1908797837
 0
VERTEX
 8
VUE_1
 10
16794.4859170982
 20
9376.7206811199
 0
VERTEX
 8
VUE_1
 10
16784.4508615944
 20
9367.3766945928
 0
VERTEX
 8
VUE_1
 10
16774.2870945940
 20
9358.1538720049
 0
VERTEX
 8
VUE_1
 10
16763.9977342691
 20
9349.0471651584
 0
VERTEX
 8
VUE_1
 10
16753.5858987915
 20
9340.0515258557
 0
VERTEX
 8
VUE_1
 10
16743.0547063331
 20
9331.1619058993
 0
VERTEX
 8
VUE_1
 10
16732.4072750660
 20
9322.3732570915
 0
VERTEX
 8
VUE_1
 10
16721.6467231620
 20
9313.6805312345
 0
VERTEX
 8
VUE_1
 10
16710.7761687931
 20
9305.0786801309
 0
VERTEX
 8
VUE_1
 10
16699.7987301312
 20
9296.5626555830
 0
VERTEX
 8
VUE_1
 10
16688.7175253483
 20
9288.1274093931
 0
VERTEX
 8
VUE_1
 10
16677.5356726163
 20
9279.7678933636
 0
VERTEX
 8
VUE_1
 10
16666.2562901072
 20
9271.4790592968
 0
VERTEX
 8
VUE_1
 10
16654.8824959928
 20
9263.2558589952
 0
VERTEX
 8
VUE_1
 10
16643.4174084452
 20
9255.0932442610
 0
SEQEND
 0
POLYLINE
 8
VUE_1
 66
1
 0
VERTEX
 8
VUE_1
 10
16643.4174084452
 20
9255.0932442610
 0
VERTEX
 8
VUE_1
 10
16635.2190554040
 20
9249.3320914803
 0
VERTEX
 8
VUE_1
 10
16626.9743089368
 20
9243.6154018406
 0
VERTEX
 8
VUE_1
 10
16618.6812672785
 20
9237.9596153193
 0
VERTEX
 8
VUE_1
 10
16610.3380286640
 20
9232.3811718933
 0
VERTEX
 8
VUE_1
 10
16601.9426913282
 20
9226.8965115397
 0
VERTEX
 8
VUE_1
 10
16593.4933535060
 20
9221.5220742357
 0
VERTEX
 8
VUE_1
 10
16584.9881134319
 20
9216.2742999583
 0
VERTEX
 8
VUE_1
 10
16576.4250693409
 20
9211.1696286846
 0
VERTEX
 8
VUE_1
 10
16567.8023194680
 20
9206.2245003917
 0
VERTEX
 8
VUE_1
 10
16559.1179620479
 20
9201.4553550566
 0
VERTEX
 8
VUE_1
 10
16550.3700953154
 20
9196.8786326565
 0
VERTEX
 8
VUE_1
 10
16541.5568175053
 20
9192.5107731685
 0
VERTEX
 8
VUE_1
 10
16532.6762268525
 20
9188.3682165696
 0
VERTEX
 8
VUE_1
 10
16523.7264215920
 20
9184.4674028369
 0
VERTEX
 8
VUE_1
 10
16514.7054999585
 20
9180.8247719475
 0
VERTEX
 8
VUE_1
 10
16505.6115601866
 20
9177.4567638786
 0
VERTEX
 8
VUE_1
 10
16496.4427005116
 20
9174.3798186071
 0
VERTEX
 8
VUE_1
 10
16487.1970191679
 20
9171.6103761102
 0
VERTEX
 8
VUE_1
 10
16477.8726143905
 20
9169.1648763649
 0
VERTEX
 8
VUE_1
 10
16468.4675844144
 20
9167.0597593484
 0
SEQEND
 0
POLYLINE
 8
VUE_1
 66
1
 0
VERTEX
 8
VUE_1
 10
16468.4675844144
 20
9167.0597593484
 0
VERTEX
 8
VUE_1
 10
16460.6845684764
 20
9165.5931064595
 0
VERTEX
 8
VUE_1
 10
16452.8500565283
 20
9164.3507753269
 0
VERTEX
 8
VUE_1
 10
16444.9681897449
 20
9163.3165286198
 0
VERTEX
 8
VUE_1
 10
16437.0431093020
 20
9162.4741290071
 0
VERTEX
 8
VUE_1
 10
16429.0789563748
 20
9161.8073391580
 0
VERTEX
 8
VUE_1
 10
16421.0798721387
 20
9161.2999217414
 0
VERTEX
 8
VUE_1
 10
16413.0499977688
 20
9160.9356394265
 0
VERTEX
 8
VUE_1
 10
16404.9934744407
 20
9160.6982548824
 0
VERTEX
 8
VUE_1
 10
16396.9144433297
 20
9160.5715307779
 0
VERTEX
 8
VUE_1
 10
16388.8170456112
 20
9160.5392297823
 0
VERTEX
 8
VUE_1
 10
16380.7054224604
 20
9160.5851145645
 0
VERTEX
 8
VUE_1
 10
16372.5837150527
 20
9160.6929477937
 0
VERTEX
 8
VUE_1
 10
16364.4560645635
 20
9160.8464921388
 0
VERTEX
 8
VUE_1
 10
16356.3266121680
 20
9161.0295102689
 0
VERTEX
 8
VUE_1
 10
16348.1994990417
 20
9161.2257648531
 0
VERTEX
 8
VUE_1
 10
16340.0788663598
 20
9161.4190185605
 0
VERTEX
 8
VUE_1
 10
16331.9688552978
 20
9161.5930340600
 0
VERTEX
 8
VUE_1
 10
16323.8736070310
 20
9161.7315740208
 0
VERTEX
 8
VUE_1
 10
16315.7972627347
 20
9161.8184011118
 0
VERTEX
 8
VUE_1
 10
16307.7439635842
 20
9161.8372780022
 0
SEQEND
 0
POLYLINE
 8
VUE_1
 66
1
 0
VERTEX
 8
VUE_1
 10
16308.8563305134
 20
10612.3225903567
 0
VERTEX
 8
VUE_1
 10
16012.4240182467
 20
10605.7914261754
 0
SEQEND
 0
POLYLINE
 8
VUE_1
 66
1
 0
VERTEX
 8
VUE_1
 10
16952.9072965425
 20
10934.4769221429
 0
VERTEX
 8
VUE_1
 10
16147.2537246406
 20
10951.6716729771
 0
SEQEND
 0
POLYLINE
 8
VUE_1
 66
1
 0
VERTEX
 8
VUE_1
 10
17058.5749721444
 20
10638.2975022209
 0
VERTEX
 8
VUE_1
 10
16146.1684446312
 20
10622.4950449138
 0
SEQEND
 0
POLYLINE
 8
VUE_1
 66
1
 0
VERTEX
 8
VUE_1
 10
16147.2537246406
 20
10951.6716729771
 0
VERTEX
 8
VUE_1
 10
16152.9083327116
 20
10621.5497413700
 0
SEQEND
 0
POLYLINE
 8
VUE_1
 66
1
 0
VERTEX
 8
VUE_1
 10
16963.4897804352
 20
10936.4289108674
 0
VERTEX
 8
VUE_1
 10
16152.0931845716
 20
10941.0965548810
 0
SEQEND
 0
POLYLINE
 8
VUE_1
 66
1
 0
VERTEX
 8
VUE_1
 10
17058.5749721444
 20
10638.2975022209
 0
VERTEX
 8
VUE_1
 10
16476.2584577870
 20
10640.6620282127
 0
SEQEND
 0
POLYLINE
 8
VUE_1
 66
1
 0
VERTEX
 8
VUE_1
 10
17088.2206375700
 20
10336.1491739129
 0
VERTEX
 8
VUE_1
 10
16468.3940054494
 20
10327.8305501274
 0
SEQEND
 0
POLYLINE
 8
VUE_1
 66
1
 0
VERTEX
 8
VUE_1
 10
17093.8015876766
 20
10034.9019543701
 0
VERTEX
 8
VUE_1
 10
16472.9903677645
 20
10035.2432889384
 0
SEQEND
 0
POLYLINE
 8
VUE_1
 66
1
 0
VERTEX
 8
VUE_1
 10
17026.2578198754
 20
9723.8432306291
 0
VERTEX
 8
VUE_1
 10
16467.0287988419
 20
9731.0791350033
 0
SEQEND
 0
POLYLINE
 8
VUE_1
 66
1
 0
VERTEX
 8
VUE_1
 10
16851.8186910648
 20
9435.6117420711
 0
VERTEX
 8
VUE_1
 10
16366.7259836511
 20
9433.4117978660
 0
SEQEND
 0
POLYLINE
 8
VUE_1
 66
1
 0
VERTEX
 8
VUE_1
 10
16467.0287988419
 20
9731.0791350033
 0
VERTEX
 8
VUE_1
 10
15725.8940023347
 20
9735.9260133971
 0
SEQEND
 0
POLYLINE
 8
VUE_1
 66
1
 0
VERTEX
 8
VUE_1
 10
16366.7259836511
 20
9433.4117978660
 0
VERTEX
 8
VUE_1
 10
15624.6336072726
 20
9436.3312401900
 0
SEQEND
 0
POLYLINE
 8
VUE_1
 66
1
 0
VERTEX
 8
VUE_1
 10
16472.9903677645
 20
10035.2432889384
 0
VERTEX
 8
VUE_1
 10
15818.4821627155
 20
10039.3486508234
 0
SEQEND
 0
POLYLINE
 8
VUE_1
 66
1
 0
VERTEX
 8
VUE_1
 10
15573.0519680341
 20
9282.2001915113
 0
VERTEX
 8
VUE_1
 10
16307.7439635842
 20
9161.8372780022
 0
SEQEND
 0
POINT
 8
VUE_1
 10
16316.9462741956
 20
10611.9814038672
 0
POLYLINE
 8
VUE_1
 66
1
 0
VERTEX
 8
VUE_1
 10
16308.8563305134
 20
10612.3225903567
 0
VERTEX
 8
VUE_1
 10
15640.2568410874
 20
9015.2981869255
 0
SEQEND
 0
POLYLINE
 8
VUE_1
 66
1
 0
VERTEX
 8
VUE_1
 10
15269.2734541432
 20
9222.4737032410
 0
VERTEX
 8
VUE_1
 10
12134.9331246075
 20
9424.0230835961
 0
SEQEND
 0
POLYLINE
 8
VUE_1
 66
1
 0
VERTEX
 8
VUE_1
 10
11060.0617791267
 20
9670.8850921934
 0
VERTEX
 8
VUE_1
 10
11065.2695397945
 20
9840.2145924459
 0
SEQEND
 0
POLYLINE
 8
VUE_1
 66
1
 0
VERTEX
 8
VUE_1
 10
9793.8981802215
 20
10622.5649994147
 0
VERTEX
 8
VUE_1
 10
9545.8420666931
 20
10621.4873203482
 0
SEQEND
 0
CIRCLE
 8
VUE_1
 10
10361.3192962365
 20
10074.9100292516
 40
88.0421739176
 0
POLYLINE
 8
VUE_1
 66
1
 0
VERTEX
 8
VUE_1
 10
15927.8129804745
 20
9166.2347721747
 0
VERTEX
 8
VUE_1
 10
15931.8867262135
 20
8864.7094974315
 0
SEQEND
 0
POLYLINE
 8
VUE_1
 66
1
 0
VERTEX
 8
VUE_1
 10
15739.4988888760
 20
9075.9241267142
 0
VERTEX
 8
VUE_1
 10
15159.6523476371
 20
9071.3033979036
 0
VERTEX
 8
VUE_1
 10
14885.6083873786
 20
9059.1852412802
 0
VERTEX
 8
VUE_1
 10
14671.2862445146
 20
9050.2591512967
 0
SEQEND
 0
POLYLINE
 8
VUE_1
 66
1
 0
VERTEX
 8
VUE_1
 10
14671.2862445146
 20
9050.2591512967
 0
VERTEX
 8
VUE_1
 10
14585.8773245411
 20
9040.9955665139
 0
VERTEX
 8
VUE_1
 10
14571.8219659991
 20
9015.3340055623
 0
SEQEND
 0
POLYLINE
 8
VUE_1
 66
1
 0
VERTEX
 8
VUE_1
 10
15739.4948237566
 20
8954.6655932132
 0
VERTEX
 8
VUE_1
 10
15159.6485936353
 20
8959.3252000267
 0
VERTEX
 8
VUE_1
 10
14885.6054465007
 20
8971.4617309408
 0
VERTEX
 8
VUE_1
 10
14671.2839026020
 20
8980.4021909462
 0
SEQEND
 0
POLYLINE
 8
VUE_1
 66
1
 0
VERTEX
 8
VUE_1
 10
14671.2839026020
 20
8980.4021909462
 0
VERTEX
 8
VUE_1
 10
14585.8756039327
 20
8989.6715022736
 0
VERTEX
 8
VUE_1
 10
14571.8219659991
 20
9015.3340055623
 0
SEQEND
 0
POLYLINE
 8
VUE_1
 66
1
 0
VERTEX
 8
VUE_1
 10
7902.8463637138
 20
9135.6952828552
 0
VERTEX
 8
VUE_1
 10
7757.8644981535
 20
9136.0748453589
 0
SEQEND
 0
POLYLINE
 8
VUE_1
 66
1
 0
VERTEX
 8
VUE_1
 10
7757.5490004279
 20
9015.5624499664
 0
VERTEX
 8
VUE_1
 10
7757.8644981535
 20
9136.0748453589
 0
SEQEND
 0
POLYLINE
 8
VUE_1
 66
1
 0
VERTEX
 8
VUE_1
 10
7902.5318458720
 20
9015.5575895037
 0
VERTEX
 8
VUE_1
 10
7902.8463637138
 20
9135.6952828552
 0
SEQEND
 0
POLYLINE
 8
VUE_1
 66
1
 0
VERTEX
 8
VUE_1
 10
7755.6605316083
 20
9113.0629923368
 0
VERTEX
 8
VUE_1
 10
7676.3198110769
 20
9038.5221100705
 0
VERTEX
 8
VUE_1
 10
7677.1778985134
 20
9015.5651443592
 0
SEQEND
 0
POLYLINE
 8
VUE_1
 66
1
 0
VERTEX
 8
VUE_1
 10
7676.3198110769
 20
9038.5221100705
 0
VERTEX
 8
VUE_1
 10
7636.7472960478
 20
9038.6257109093
 0
VERTEX
 8
VUE_1
 10
7637.4678216029
 20
9015.5664756157
 0
SEQEND
 0
POLYLINE
 8
VUE_1
 66
1
 0
VERTEX
 8
VUE_1
 10
10196.9664592883
 20
9431.0092219343
 0
VERTEX
 8
VUE_1
 10
10199.7599269662
 20
8363.9854379420
 0
SEQEND
 0
POLYLINE
 8
VUE_1
 66
1
 0
VERTEX
 8
VUE_1
 10
11056.6305793330
 20
9670.8701853558
 0
VERTEX
 8
VUE_1
 10
11060.0617791267
 20
8360.2478590380
 0
SEQEND
 0
POLYLINE
 8
VUE_1
 66
1
 0
VERTEX
 8
VUE_1
 10
10199.7599269662
 20
8363.9854379420
 0
VERTEX
 8
VUE_1
 10
9677.7137333686
 20
8572.0980241479
 0
SEQEND
 0
POLYLINE
 8
VUE_1
 66
1
 0
VERTEX
 8
VUE_1
 10
9686.7481212348
 20
9015.6351765056
 0
VERTEX
 8
VUE_1
 10
9687.9199533836
 20
8568.0293366088
 0
SEQEND
 0
POLYLINE
 8
VUE_1
 66
1
 0
VERTEX
 8
VUE_1
 10
12134.9057279739
 20
9424.3246323180
 0
VERTEX
 8
VUE_1
 10
11060.0617791267
 20
8360.2478590380
 0
SEQEND
 0
POLYLINE
 8
VUE_1
 66
1
 0
VERTEX
 8
VUE_1
 10
11058.3458535497
 20
9015.6816517387
 0
VERTEX
 8
VUE_1
 10
10199.7599269662
 20
8363.9854379420
 0
SEQEND
 0
POLYLINE
 8
VUE_1
 66
1
 0
VERTEX
 8
VUE_1
 10
10199.7599269662
 20
8363.9854379420
 0
VERTEX
 8
VUE_1
 10
9795.0313991122
 20
9015.6388066374
 0
SEQEND
 0
POLYLINE
 8
VUE_1
 66
1
 0
VERTEX
 8
VUE_1
 10
9645.0889517897
 20
9016.2092693719
 0
VERTEX
 8
VUE_1
 10
10199.7599269662
 20
8363.9854379420
 0
SEQEND
 0
POLYLINE
 8
VUE_1
 66
1
 0
VERTEX
 8
VUE_1
 10
9348.3016219601
 20
8592.1105350325
 0
VERTEX
 8
VUE_1
 10
8965.7311188773
 20
8540.0814034637
 0
VERTEX
 8
VUE_1
 10
8601.6188099181
 20
8525.2115496595
 0
SEQEND
 0
POLYLINE
 8
VUE_1
 66
1
 0
VERTEX
 8
VUE_1
 10
9677.7137333686
 20
8572.0980241479
 0
VERTEX
 8
VUE_1
 10
9334.6783929065
 20
8643.3786372174
 0
SEQEND
 0
POLYLINE
 8
VUE_1
 66
1
 0
VERTEX
 8
VUE_1
 10
7834.5336592478
 20
8143.6176995255
 0
VERTEX
 8
VUE_1
 10
7832.5659070980
 20
8895.2536741506
 0
SEQEND
 0
POLYLINE
 8
VUE_1
 66
1
 0
VERTEX
 8
VUE_1
 10
7757.5490004279
 20
9015.5705012650
 0
VERTEX
 8
VUE_1
 10
7757.8644981535
 20
8895.0581058725
 0
SEQEND
 0
POLYLINE
 8
VUE_1
 66
1
 0
VERTEX
 8
VUE_1
 10
7755.6605316083
 20
8918.0699588946
 0
VERTEX
 8
VUE_1
 10
7676.3198110769
 20
8992.6108411609
 0
VERTEX
 8
VUE_1
 10
7677.1778985134
 20
9015.5678068722
 0
SEQEND
 0
POLYLINE
 8
VUE_1
 66
1
 0
VERTEX
 8
VUE_1
 10
7902.5318458720
 20
9015.5753617277
 0
VERTEX
 8
VUE_1
 10
7902.8463637138
 20
8895.4376683762
 0
SEQEND
 0
POLYLINE
 8
VUE_1
 66
1
 0
VERTEX
 8
VUE_1
 10
7902.8463637138
 20
8895.4376683762
 0
VERTEX
 8
VUE_1
 10
7757.8644981535
 20
8895.0581058725
 0
SEQEND
 0
POLYLINE
 8
VUE_1
 66
1
 0
VERTEX
 8
VUE_1
 10
7676.3198110769
 20
8992.6108411609
 0
VERTEX
 8
VUE_1
 10
7636.7472960478
 20
8992.5072403221
 0
VERTEX
 8
VUE_1
 10
7637.4678216029
 20
9015.5664756157
 0
SEQEND
 0
POLYLINE
 8
VUE_1
 66
1
 0
VERTEX
 8
VUE_1
 10
11820.8734745610
 20
15720.0745170554
 0
VERTEX
 8
VUE_1
 10
11820.8734748409
 20
13999.7545144845
 0
SEQEND
 0
POLYLINE
 8
VUE_1
 66
1
 0
VERTEX
 8
VUE_1
 10
11604.3011254746
 20
12969.5998799511
 0
VERTEX
 8
VUE_1
 10
11604.3011254248
 20
13999.7545144845
 0
SEQEND
 0
POLYLINE
 8
VUE_1
 66
1
 0
VERTEX
 8
VUE_1
 10
11820.8734746174
 20
15373.2940271957
 0
VERTEX
 8
VUE_1
 10
9793.8981802215
 20
15373.2940271957
 0
SEQEND
 0
POLYLINE
 8
VUE_1
 66
1
 0
VERTEX
 8
VUE_1
 10
11820.8734746340
 20
15029.9091490179
 0
VERTEX
 8
VUE_1
 10
9793.8981802215
 20
15029.9091490179
 0
SEQEND
 0
POLYLINE
 8
VUE_1
 66
1
 0
VERTEX
 8
VUE_1
 10
11820.8734746506
 20
14686.5242708401
 0
VERTEX
 8
VUE_1
 10
9793.8981802215
 20
14686.5242708401
 0
SEQEND
 0
POLYLINE
 8
VUE_1
 66
1
 0
VERTEX
 8
VUE_1
 10
11820.8734746009
 20
15716.6789053735
 0
VERTEX
 8
VUE_1
 10
9844.9506399463
 20
15716.6789053735
 0
SEQEND
 0
POLYLINE
 8
VUE_1
 66
1
 0
VERTEX
 8
VUE_1
 10
11820.8734746672
 20
14343.1393926623
 0
VERTEX
 8
VUE_1
 10
9793.8981802215
 20
14343.1393926623
 0
SEQEND
 0
POLYLINE
 8
VUE_1
 66
1
 0
VERTEX
 8
VUE_1
 10
11820.8734746838
 20
13999.7545144845
 0
VERTEX
 8
VUE_1
 10
9793.8981802215
 20
13999.7545144845
 0
SEQEND
 0
POLYLINE
 8
VUE_1
 66
1
 0
VERTEX
 8
VUE_1
 10
11820.8734746009
 20
15716.6789053735
 0
VERTEX
 8
VUE_1
 10
9793.8981802215
 20
15716.6789053735
 0
SEQEND
 0
POLYLINE
 8
VUE_1
 66
1
 0
VERTEX
 8
VUE_1
 10
11753.5309945901
 20
13656.3696363067
 0
VERTEX
 8
VUE_1
 10
9793.8981802215
 20
13656.3696363067
 0
SEQEND
 0
POLYLINE
 8
VUE_1
 66
1
 0
VERTEX
 8
VUE_1
 10
11753.5309945901
 20
13312.9847581289
 0
VERTEX
 8
VUE_1
 10
9793.8981802215
 20
13312.9847581289
 0
SEQEND
 0
POLYLINE
 8
VUE_1
 66
1
 0
VERTEX
 8
VUE_1
 10
11753.5309945901
 20
12969.5998799511
 0
VERTEX
 8
VUE_1
 10
9793.8981802215
 20
12969.5998799511
 0
SEQEND
 0
POLYLINE
 8
VUE_1
 66
1
 0
VERTEX
 8
VUE_1
 10
11753.5309945901
 20
12626.2150017733
 0
VERTEX
 8
VUE_1
 10
9793.8981802215
 20
12626.2150017733
 0
SEQEND
 0
POLYLINE
 8
VUE_1
 66
1
 0
VERTEX
 8
VUE_1
 10
11753.5309945901
 20
12282.8301235955
 0
VERTEX
 8
VUE_1
 10
9793.8981802215
 20
12282.8301235955
 0
SEQEND
 0
POLYLINE
 8
VUE_1
 66
1
 0
VERTEX
 8
VUE_1
 10
11753.5309945901
 20
11939.4452454178
 0
VERTEX
 8
VUE_1
 10
9793.8981802215
 20
11939.4452454178
 0
SEQEND
 0
POLYLINE
 8
VUE_1
 66
1
 0
VERTEX
 8
VUE_1
 10
11753.5309945901
 20
11596.0603672400
 0
VERTEX
 8
VUE_1
 10
9793.8981802215
 20
11596.0603672400
 0
SEQEND
 0
POLYLINE
 8
VUE_1
 66
1
 0
VERTEX
 8
VUE_1
 10
11753.5309945901
 20
11252.6754890622
 0
VERTEX
 8
VUE_1
 10
9793.8981802215
 20
11252.6754890622
 0
SEQEND
 0
POLYLINE
 8
VUE_1
 66
1
 0
VERTEX
 8
VUE_1
 10
11753.5309945901
 20
10909.2906108844
 0
VERTEX
 8
VUE_1
 10
9793.8981802215
 20
10909.2906108844
 0
SEQEND
 0
POLYLINE
 8
VUE_1
 66
1
 0
VERTEX
 8
VUE_1
 10
11753.5309945901
 20
10565.9057327066
 0
VERTEX
 8
VUE_1
 10
9793.8981802215
 20
10565.9057327066
 0
SEQEND
 0
POLYLINE
 8
VUE_1
 66
1
 0
VERTEX
 8
VUE_1
 10
11753.5309945901
 20
10222.5208545288
 0
VERTEX
 8
VUE_1
 10
9793.8981802215
 20
10222.5208545288
 0
SEQEND
 0
POLYLINE
 8
VUE_1
 66
1
 0
VERTEX
 8
VUE_1
 10
11028.9168760231
 20
14686.5242708401
 0
VERTEX
 8
VUE_1
 10
10233.4394549869
 20
15717.3465211000
 0
SEQEND
 0
POINT
 8
VUE_1
 10
11025.8392512070
 20
12626.2150017733
 0
POLYLINE
 8
VUE_1
 66
1
 0
VERTEX
 8
VUE_1
 10
11025.8392512070
 20
9879.1359763510
 0
VERTEX
 8
VUE_1
 10
11025.8392512070
 20
15716.6789053735
 0
SEQEND
 0
POINT
 8
VUE_1
 10
11071.9652040290
 20
12626.2150017734
 0
POLYLINE
 8
VUE_1
 66
1
 0
VERTEX
 8
VUE_1
 10
11071.9652040290
 20
9879.1359763510
 0
VERTEX
 8
VUE_1
 10
11071.9652040290
 20
15716.6789053735
 0
SEQEND
 0
POINT
 8
VUE_1
 10
10228.8220204996
 20
12626.2150017735
 0
POINT
 8
VUE_1
 10
10178.4590724713
 20
12626.2150017733
 0
POLYLINE
 8
VUE_1
 66
1
 0
VERTEX
 8
VUE_1
 10
10228.8220204996
 20
9879.1359763510
 0
VERTEX
 8
VUE_1
 10
10228.8220204996
 20
15716.6789053735
 0
SEQEND
 0
POLYLINE
 8
VUE_1
 66
1
 0
VERTEX
 8
VUE_1
 10
10182.7529104996
 20
9879.1359763510
 0
VERTEX
 8
VUE_1
 10
10182.7529104996
 20
15716.6789053735
 0
SEQEND
 0
POLYLINE
 8
VUE_1
 66
1
 0
VERTEX
 8
VUE_1
 10
11025.8392512070
 20
15716.6789053734
 0
VERTEX
 8
VUE_1
 10
10228.8220204996
 20
14686.5242708401
 0
SEQEND
 0
POLYLINE
 8
VUE_1
 66
1
 0
VERTEX
 8
VUE_1
 10
10228.8220204996
 20
13656.3696363069
 0
VERTEX
 8
VUE_1
 10
11028.9168760231
 20
14686.5242708401
 0
SEQEND
 0
POLYLINE
 8
VUE_1
 66
1
 0
VERTEX
 8
VUE_1
 10
11025.8392512072
 20
13656.3696363067
 0
VERTEX
 8
VUE_1
 10
10228.8220204996
 20
14686.5242708401
 0
SEQEND
 0
POLYLINE
 8
VUE_1
 66
1
 0
VERTEX
 8
VUE_1
 10
11025.8392512072
 20
13656.3696363067
 0
VERTEX
 8
VUE_1
 10
10228.8220204996
 20
12626.2150017735
 0
SEQEND
 0
POLYLINE
 8
VUE_1
 66
1
 0
VERTEX
 8
VUE_1
 10
10228.8220204996
 20
13656.3696363069
 0
VERTEX
 8
VUE_1
 10
11025.8392512070
 20
12626.2150017733
 0
SEQEND
 0
POLYLINE
 8
VUE_1
 66
1
 0
VERTEX
 8
VUE_1
 10
11025.8392512070
 20
12626.2150017733
 0
VERTEX
 8
VUE_1
 10
10228.8220204996
 20
11596.0603672399
 0
SEQEND
 0
POLYLINE
 8
VUE_1
 66
1
 0
VERTEX
 8
VUE_1
 10
11025.8392512070
 20
11596.0603672399
 0
VERTEX
 8
VUE_1
 10
10228.8220204996
 20
12626.2150017735
 0
SEQEND
 0
POLYLINE
 8
VUE_1
 66
1
 0
VERTEX
 8
VUE_1
 10
10228.8220204996
 20
11596.0603672399
 0
VERTEX
 8
VUE_1
 10
11025.8392512072
 20
10565.9057327066
 0
SEQEND
 0
POLYLINE
 8
VUE_1
 66
1
 0
VERTEX
 8
VUE_1
 10
11025.8392512070
 20
11596.0603672399
 0
VERTEX
 8
VUE_1
 10
10228.8220204993
 20
10565.9057327066
 0
SEQEND
 0
POLYLINE
 8
VUE_1
 66
1
 0
VERTEX
 8
VUE_1
 10
10228.8220204993
 20
10565.9057327066
 0
VERTEX
 8
VUE_1
 10
11025.8392512070
 20
9919.2839453373
 0
SEQEND
 0
POLYLINE
 8
VUE_1
 66
1
 0
VERTEX
 8
VUE_1
 10
11025.8392512072
 20
10565.9057327066
 0
VERTEX
 8
VUE_1
 10
10228.8220204995
 20
9915.8213062880
 0
SEQEND
 0
POLYLINE
 8
VUE_1
 66
1
 0
VERTEX
 8
VUE_1
 10
11753.5309945901
 20
9879.1359763510
 0
VERTEX
 8
VUE_1
 10
9793.8981802215
 20
9879.1359763510
 0
SEQEND
 0
POLYLINE
 8
VUE_1
 66
1
 0
VERTEX
 8
VUE_1
 10
11753.5309945901
 20
9914.1535781887
 0
VERTEX
 8
VUE_1
 10
9793.8981802215
 20
9914.1535781887
 0
SEQEND
 0
POINT
 8
VUE_1
 10
11375.9039834549
 20
9841.5641428863
 0
POLYLINE
 8
VUE_1
 66
1
 0
VERTEX
 8
VUE_1
 10
11375.9039834549
 20
9841.5641428863
 0
VERTEX
 8
VUE_1
 10
9793.8981802215
 20
9841.5641428863
 0
SEQEND
 0
POLYLINE
 8
VUE_1
 66
1
 0
VERTEX
 8
VUE_1
 10
10196.9664592883
 20
9431.0092219343
 0
VERTEX
 8
VUE_1
 10
10199.7599269662
 20
8363.9854379420
 0
SEQEND
 0
POLYLINE
 8
VUE_1
 66
1
 0
VERTEX
 8
VUE_1
 10
10205.3624960752
 20
6223.9709042431
 0
VERTEX
 8
VUE_1
 10
10205.3624960752
 20
6223.9709042431
 0
SEQEND
 0
POLYLINE
 8
VUE_1
 66
1
 0
VERTEX
 8
VUE_1
 10
12132.6680738562
 20
8606.9642167080
 0
VERTEX
 8
VUE_1
 10
11375.8808611056
 20
8331.4176251738
 0
SEQEND
 0
POLYLINE
 8
VUE_1
 66
1
 0
VERTEX
 8
VUE_1
 10
11375.8808611056
 20
8331.4176251738
 0
VERTEX
 8
VUE_1
 10
11376.9271770346
 20
1912.5769468781
 0
SEQEND
 0
POLYLINE
 8
VUE_1
 66
1
 0
VERTEX
 8
VUE_1
 10
11281.7790298404
 20
8151.9969748804
 0
VERTEX
 8
VUE_1
 10
11291.0551511677
 20
1942.1176380449
 0
SEQEND
 0
POLYLINE
 8
VUE_1
 66
1
 0
VERTEX
 8
VUE_1
 10
11820.8734745610
 20
2311.0584341760
 0
VERTEX
 8
VUE_1
 10
11817.1711155994
 20
2298.8158270295
 0
VERTEX
 8
VUE_1
 10
11813.2229745652
 20
2286.6153921492
 0
VERTEX
 8
VUE_1
 10
11809.0279720778
 20
2274.4680096593
 0
VERTEX
 8
VUE_1
 10
11804.5850287568
 20
2262.3845596840
 0
VERTEX
 8
VUE_1
 10
11799.8930652214
 20
2250.3759223475
 0
VERTEX
 8
VUE_1
 10
11794.9510020911
 20
2238.4529777741
 0
VERTEX
 8
VUE_1
 10
11789.7577599853
 20
2226.6266060880
 0
VERTEX
 8
VUE_1
 10
11784.3122595235
 20
2214.9076874134
 0
VERTEX
 8
VUE_1
 10
11778.6134213250
 20
2203.3071018746
 0
VERTEX
 8
VUE_1
 10
11772.6601660093
 20
2191.8357295957
 0
VERTEX
 8
VUE_1
 10
11766.4514141957
 20
2180.5044507010
 0
VERTEX
 8
VUE_1
 10
11759.9860865037
 20
2169.3241453147
 0
VERTEX
 8
VUE_1
 10
11753.2631035527
 20
2158.3056935610
 0
VERTEX
 8
VUE_1
 10
11746.2813859622
 20
2147.4599755642
 0
VERTEX
 8
VUE_1
 10
11739.0398543515
 20
2136.7978714485
 0
VERTEX
 8
VUE_1
 10
11731.5374293400
 20
2126.3302613382
 0
VERTEX
 8
VUE_1
 10
11723.7730315471
 20
2116.0680253573
 0
VERTEX
 8
VUE_1
 10
11715.7455815924
 20
2106.0220436303
 0
VERTEX
 8
VUE_1
 10
11707.4540000951
 20
2096.2031962812
 0
VERTEX
 8
VUE_1
 10
11698.8972076748
 20
2086.6223634343
 0
SEQEND
 0
POLYLINE
 8
VUE_1
 66
1
 0
VERTEX
 8
VUE_1
 10
11698.8972076748
 20
2086.6223634343
 0
VERTEX
 8
VUE_1
 10
11687.8854362017
 20
2075.0500688044
 0
VERTEX
 8
VUE_1
 10
11676.4797436140
 20
2063.8615249995
 0
VERTEX
 8
VUE_1
 10
11664.6982055882
 20
2053.0554001511
 0
VERTEX
 8
VUE_1
 10
11652.5588978006
 20
2042.6303623905
 0
VERTEX
 8
VUE_1
 10
11640.0798959276
 20
2032.5850798494
 0
VERTEX
 8
VUE_1
 10
11627.2792756457
 20
2022.9182206592
 0
VERTEX
 8
VUE_1
 10
11614.1751126313
 20
2013.6284529513
 0
VERTEX
 8
VUE_1
 10
11600.7854825608
 20
2004.7144448572
 0
VERTEX
 8
VUE_1
 10
11587.1284611107
 20
1996.1748645084
 0
VERTEX
 8
VUE_1
 10
11573.2221239573
 20
1988.0083800364
 0
VERTEX
 8
VUE_1
 10
11559.0845467771
 20
1980.2136595725
 0
VERTEX
 8
VUE_1
 10
11544.7338052465
 20
1972.7893712484
 0
VERTEX
 8
VUE_1
 10
11530.1879750419
 20
1965.7341831955
 0
VERTEX
 8
VUE_1
 10
11515.4651318397
 20
1959.0467635452
 0
VERTEX
 8
VUE_1
 10
11500.5833513164
 20
1952.7257804290
 0
VERTEX
 8
VUE_1
 10
11485.5607091484
 20
1946.7699019784
 0
VERTEX
 8
VUE_1
 10
11470.4152810121
 20
1941.1777963249
 0
VERTEX
 8
VUE_1
 10
11455.1651425840
 20
1935.9481315999
 0
VERTEX
 8
VUE_1
 10
11439.8283695404
 20
1931.0795759349
 0
VERTEX
 8
VUE_1
 10
11424.4230375577
 20
1926.5707974614
 0
SEQEND
 0
POLYLINE
 8
VUE_1
 66
1
 0
VERTEX
 8
VUE_1
 10
11424.4230375577
 20
1926.5707974614
 0
VERTEX
 8
VUE_1
 10
11406.0233977290
 20
1921.6687350490
 0
VERTEX
 8
VUE_1
 10
11387.5562057586
 20
1917.2483315466
 0
VERTEX
 8
VUE_1
 10
11369.0253878563
 20
1913.2837295210
 0
VERTEX
 8
VUE_1
 10
11350.4348702319
 20
1909.7490715392
 0
VERTEX
 8
VUE_1
 10
11331.7885790953
 20
1906.6185001679
 0
VERTEX
 8
VUE_1
 10
11313.0904406565
 20
1903.8661579739
 0
VERTEX
 8
VUE_1
 10
11294.3443811252
 20
1901.4661875241
 0
VERTEX
 8
VUE_1
 10
11275.5543267113
 20
1899.3927313852
 0
VERTEX
 8
VUE_1
 10
11256.7242036246
 20
1897.6199321242
 0
VERTEX
 8
VUE_1
 10
11237.8579380752
 20
1896.1219323078
 0
VERTEX
 8
VUE_1
 10
11218.9594562727
 20
1894.8728745028
 0
VERTEX
 8
VUE_1
 10
11200.0326844271
 20
1893.8469012761
 0
VERTEX
 8
VUE_1
 10
11181.0815487483
 20
1893.0181551945
 0
VERTEX
 8
VUE_1
 10
11162.1099754460
 20
1892.3607788248
 0
VERTEX
 8
VUE_1
 10
11143.1218907302
 20
1891.8489147339
 0
VERTEX
 8
VUE_1
 10
11124.1212208108
 20
1891.4567054885
 0
VERTEX
 8
VUE_1
 10
11105.1118918975
 20
1891.1582936555
 0
VERTEX
 8
VUE_1
 10
11086.0978302003
 20
1890.9278218017
 0
VERTEX
 8
VUE_1
 10
11067.0829619290
 20
1890.7394324940
 0
VERTEX
 8
VUE_1
 10
11048.0712132935
 20
1890.5672682991
 0
SEQEND
 0
POLYLINE
 8
VUE_1
 66
1
 0
VERTEX
 8
VUE_1
 10
11048.0712132935
 20
1890.5672682991
 0
VERTEX
 8
VUE_1
 10
11030.2001925992
 20
1890.4020238887
 0
VERTEX
 8
VUE_1
 10
11012.3359924784
 20
1890.2365305284
 0
VERTEX
 8
VUE_1
 10
10994.4792036929
 20
1890.0790559951
 0
VERTEX
 8
VUE_1
 10
10976.6304170040
 20
1889.9378680663
 0
VERTEX
 8
VUE_1
 10
10958.7902231734
 20
1889.8212345189
 0
VERTEX
 8
VUE_1
 10
10940.9592129626
 20
1889.7374231301
 0
VERTEX
 8
VUE_1
 10
10923.1379771332
 20
1889.6947016772
 0
VERTEX
 8
VUE_1
 10
10905.3271064467
 20
1889.7013379373
 0
VERTEX
 8
VUE_1
 10
10887.5271916647
 20
1889.7655996876
 0
VERTEX
 8
VUE_1
 10
10869.7388235488
 20
1889.8957547052
 0
VERTEX
 8
VUE_1
 10
10851.9625928604
 20
1890.1000707673
 0
VERTEX
 8
VUE_1
 10
10834.1990903612
 20
1890.3868156512
 0
VERTEX
 8
VUE_1
 10
10816.4489068127
 20
1890.7642571338
 0
VERTEX
 8
VUE_1
 10
10798.7126329764
 20
1891.2406629925
 0
VERTEX
 8
VUE_1
 10
10780.9908596140
 20
1891.8243010044
 0
VERTEX
 8
VUE_1
 10
10763.2841774869
 20
1892.5234389467
 0
VERTEX
 8
VUE_1
 10
10745.5931773567
 20
1893.3463445965
 0
VERTEX
 8
VUE_1
 10
10727.9184499850
 20
1894.3012857310
 0
VERTEX
 8
VUE_1
 10
10710.2605861333
 20
1895.3965301274
 0
VERTEX
 8
VUE_1
 10
10692.6201765633
 20
1896.6403455629
 0
SEQEND
 0
POLYLINE
 8
VUE_1
 66
1
 0
VERTEX
 8
VUE_1
 10
10692.6201765633
 20
1896.6403455629
 0
VERTEX
 8
VUE_1
 10
10676.5654260567
 20
1897.9095743842
 0
VERTEX
 8
VUE_1
 10
10660.5252261443
 20
1899.3141005634
 0
VERTEX
 8
VUE_1
 10
10644.4991516760
 20
1900.8590595073
 0
VERTEX
 8
VUE_1
 10
10628.4867775015
 20
1902.5495866231
 0
VERTEX
 8
VUE_1
 10
10612.4876784707
 20
1904.3908173178
 0
VERTEX
 8
VUE_1
 10
10596.5014294335
 20
1906.3878869984
 0
VERTEX
 8
VUE_1
 10
10580.5276052396
 20
1908.5459310720
 0
VERTEX
 8
VUE_1
 10
10564.5657807390
 20
1910.8700849456
 0
VERTEX
 8
VUE_1
 10
10548.6155307815
 20
1913.3654840262
 0
VERTEX
 8
VUE_1
 10
10532.6764302168
 20
1916.0372637208
 0
VERTEX
 8
VUE_1
 10
10516.7480538949
 20
1918.8905594366
 0
VERTEX
 8
VUE_1
 10
10500.8299766656
 20
1921.9305065804
 0
VERTEX
 8
VUE_1
 10
10484.9217733787
 20
1925.1622405595
 0
VERTEX
 8
VUE_1
 10
10469.0230188841
 20
1928.5908967807
 0
VERTEX
 8
VUE_1
 10
10453.1332880316
 20
1932.2216106513
 0
VERTEX
 8
VUE_1
 10
10437.2521556710
 20
1936.0595175780
 0
VERTEX
 8
VUE_1
 10
10421.3791966522
 20
1940.1097529681
 0
VERTEX
 8
VUE_1
 10
10405.5139858251
 20
1944.3774522286
 0
VERTEX
 8
VUE_1
 10
10389.6560980394
 20
1948.8677507664
 0
VERTEX
 8
VUE_1
 10
10373.8051081450
 20
1953.5857839886
 0
SEQEND
 0
POLYLINE
 8
VUE_1
 66
1
 0
VERTEX
 8
VUE_1
 10
10373.8051081450
 20
1953.5857839886
 0
VERTEX
 8
VUE_1
 10
10361.3105953025
 20
1957.4727514206
 0
VERTEX
 8
VUE_1
 10
10348.8386724113
 20
1961.5171532204
 0
VERTEX
 8
VUE_1
 10
10336.4079027130
 20
1965.7315546409
 0
VERTEX
 8
VUE_1
 10
10324.0368494491
 20
1970.1285209351
 0
VERTEX
 8
VUE_1
 10
10311.7440758611
 20
1974.7206173560
 0
VERTEX
 8
VUE_1
 10
10299.5481451907
 20
1979.5204091565
 0
VERTEX
 8
VUE_1
 10
10287.4676206793
 20
1984.5404615896
 0
VERTEX
 8
VUE_1
 10
10275.5210655685
 20
1989.7933399081
 0
VERTEX
 8
VUE_1
 10
10263.7270430998
 20
1995.2916093652
 0
VERTEX
 8
VUE_1
 10
10252.1041165147
 20
2001.0478352136
 0
VERTEX
 8
VUE_1
 10
10240.6708490548
 20
2007.0745827064
 0
VERTEX
 8
VUE_1
 10
10229.4458039617
 20
2013.3844170965
 0
VERTEX
 8
VUE_1
 10
10218.4475444768
 20
2019.9899036369
 0
VERTEX
 8
VUE_1
 10
10207.6946338417
 20
2026.9036075805
 0
VERTEX
 8
VUE_1
 10
10197.2056352980
 20
2034.1380941803
 0
VERTEX
 8
VUE_1
 10
10186.9991120872
 20
2041.7059286892
 0
VERTEX
 8
VUE_1
 10
10177.0936274507
 20
2049.6196763601
 0
VERTEX
 8
VUE_1
 10
10167.5077446303
 20
2057.8919024461
 0
VERTEX
 8
VUE_1
 10
10158.2600268673
 20
2066.5351722001
 0
VERTEX
 8
VUE_1
 10
10149.3690374034
 20
2075.5620508749
 0
SEQEND
 0
POLYLINE
 8
VUE_1
 66
1
 0
VERTEX
 8
VUE_1
 10
10149.3690374034
 20
2075.5620508749
 0
VERTEX
 8
VUE_1
 10
10141.1562376593
 20
2084.6262720850
 0
VERTEX
 8
VUE_1
 10
10133.2886064027
 20
2094.0375685755
 0
VERTEX
 8
VUE_1
 10
10125.7631042024
 20
2103.7754321093
 0
VERTEX
 8
VUE_1
 10
10118.5766916269
 20
2113.8193544492
 0
VERTEX
 8
VUE_1
 10
10111.7263292450
 20
2124.1488273582
 0
VERTEX
 8
VUE_1
 10
10105.2089776254
 20
2134.7433425991
 0
VERTEX
 8
VUE_1
 10
10099.0215973368
 20
2145.5823919349
 0
VERTEX
 8
VUE_1
 10
10093.1611489479
 20
2156.6454671285
 0
VERTEX
 8
VUE_1
 10
10087.6245930274
 20
2167.9120599427
 0
VERTEX
 8
VUE_1
 10
10082.4088901440
 20
2179.3616621405
 0
VERTEX
 8
VUE_1
 10
10077.5110008664
 20
2190.9737654847
 0
VERTEX
 8
VUE_1
 10
10072.9278857633
 20
2202.7278617383
 0
VERTEX
 8
VUE_1
 10
10068.6565054035
 20
2214.6034426642
 0
VERTEX
 8
VUE_1
 10
10064.6938203556
 20
2226.5800000252
 0
VERTEX
 8
VUE_1
 10
10061.0367911883
 20
2238.6370255843
 0
VERTEX
 8
VUE_1
 10
10057.6823784704
 20
2250.7540111044
 0
VERTEX
 8
VUE_1
 10
10054.6275427704
 20
2262.9104483484
 0
VERTEX
 8
VUE_1
 10
10051.8692446573
 20
2275.0858290791
 0
VERTEX
 8
VUE_1
 10
10049.4044446995
 20
2287.2596450594
 0
VERTEX
 8
VUE_1
 10
10047.2301034659
 20
2299.4113880524
 0
SEQEND
 0
POLYLINE
 8
VUE_1
 66
1
 0
VERTEX
 8
VUE_1
 10
10066.6709249522
 20
8151.0337117459
 0
VERTEX
 8
VUE_1
 10
10081.9521559694
 20
2314.0467601571
 0
SEQEND
 0
POLYLINE
 8
VUE_1
 66
1
 0
VERTEX
 8
VUE_1
 10
11450.4053086596
 20
8358.5520127050
 0
VERTEX
 8
VUE_1
 10
10199.7599269662
 20
8363.9854379420
 0
SEQEND
 0
POLYLINE
 8
VUE_1
 66
1
 0
VERTEX
 8
VUE_1
 10
10199.7599269662
 20
8363.9854379420
 0
VERTEX
 8
VUE_1
 10
9677.7137333686
 20
8572.0980241479
 0
SEQEND
 0
POLYLINE
 8
VUE_1
 66
1
 0
VERTEX
 8
VUE_1
 10
9686.7481212348
 20
9015.6351765056
 0
VERTEX
 8
VUE_1
 10
9687.9199533836
 20
8568.0293366088
 0
SEQEND
 0
POLYLINE
 8
VUE_1
 66
1
 0
VERTEX
 8
VUE_1
 10
9793.8981802215
 20
7206.7186668959
 0
VERTEX
 8
VUE_1
 10
9546.3705141031
 20
7207.7940501241
 0
SEQEND
 0
POLYLINE
 8
VUE_1
 66
1
 0
VERTEX
 8
VUE_1
 10
9736.6889334643
 20
7126.3418679826
 0
VERTEX
 8
VUE_1
 10
9734.8184969022
 20
7579.9863012148
 0
SEQEND
 0
ARC
 8
VUE_1
 10
9546.1062871960
 20
7308.7210636307
 40
100.9249131166
 50
90.1500000000
 51
270.1500000000
 0
POLYLINE
 8
VUE_1
 66
1
 0
VERTEX
 8
VUE_1
 10
9703.2201817579
 20
7478.2386301770
 0
VERTEX
 8
VUE_1
 10
9452.1039132565
 20
8618.9783434480
 0
SEQEND
 0
POLYLINE
 8
VUE_1
 66
1
 0
VERTEX
 8
VUE_1
 10
9811.4695563333
 20
7463.0635061526
 0
VERTEX
 8
VUE_1
 10
9562.0415515919
 20
8596.1339850521
 0
SEQEND
 0
POLYLINE
 8
VUE_1
 66
1
 0
VERTEX
 8
VUE_1
 10
12134.9057279739
 20
9424.3246323180
 0
VERTEX
 8
VUE_1
 10
11060.0617791267
 20
8360.2478590380
 0
SEQEND
 0
POLYLINE
 8
VUE_1
 66
1
 0
VERTEX
 8
VUE_1
 10
11058.3458535497
 20
9015.6816517387
 0
VERTEX
 8
VUE_1
 10
10199.7599269662
 20
8363.9854379420
 0
SEQEND
 0
POLYLINE
 8
VUE_1
 66
1
 0
VERTEX
 8
VUE_1
 10
10199.7599269662
 20
8363.9854379420
 0
VERTEX
 8
VUE_1
 10
9795.0313991122
 20
9015.6388066374
 0
SEQEND
 0
POLYLINE
 8
VUE_1
 66
1
 0
VERTEX
 8
VUE_1
 10
9645.0889517897
 20
9016.2092693719
 0
VERTEX
 8
VUE_1
 10
10199.7599269662
 20
8363.9854379420
 0
SEQEND
 0
POLYLINE
 8
VUE_1
 66
1
 0
VERTEX
 8
VUE_1
 10
10160.2839320259
 20
8379.7224579621
 0
VERTEX
 8
VUE_1
 10
10047.1715840164
 20
8195.3414824043
 0
SEQEND
 0
POLYLINE
 8
VUE_1
 66
1
 0
VERTEX
 8
VUE_1
 10
10199.7599269662
 20
8363.9854379420
 0
VERTEX
 8
VUE_1
 10
10199.1562687436
 20
8194.6811853819
 0
SEQEND
 0
POLYLINE
 8
VUE_1
 66
1
 0
VERTEX
 8
VUE_1
 10
10222.9545824871
 20
8337.0319191222
 0
VERTEX
 8
VUE_1
 10
10956.7391800687
 20
8191.3898686188
 0
SEQEND
 0
POLYLINE
 8
VUE_1
 66
1
 0
VERTEX
 8
VUE_1
 10
12132.6680738562
 20
8606.9642167080
 0
VERTEX
 8
VUE_1
 10
11060.0617791267
 20
8360.2478590380
 0
SEQEND
 0
POLYLINE
 8
VUE_1
 66
1
 0
VERTEX
 8
VUE_1
 10
11060.0617791267
 20
8360.2478590380
 0
VERTEX
 8
VUE_1
 10
11065.2695397945
 20
8190.9183587855
 0
SEQEND
 0
POLYLINE
 8
VUE_1
 66
1
 0
VERTEX
 8
VUE_1
 10
9793.8981802215
 20
7408.5679518168
 0
VERTEX
 8
VUE_1
 10
9545.8420666931
 20
7409.6456308832
 0
SEQEND
 0
CIRCLE
 8
VUE_1
 10
10361.3192962365
 20
7956.2229219798
 40
88.0421739176
 0
POLYLINE
 8
VUE_1
 66
1
 0
VERTEX
 8
VUE_1
 10
11056.6305793330
 20
8360.2627658756
 0
VERTEX
 8
VUE_1
 10
11060.0617791267
 20
9670.8850921934
 0
SEQEND
 0
POLYLINE
 8
VUE_1
 66
1
 0
VERTEX
 8
VUE_1
 10
11820.8734745610
 20
2311.0584341760
 0
VERTEX
 8
VUE_1
 10
11820.8734748409
 20
4031.3784367469
 0
SEQEND
 0
POLYLINE
 8
VUE_1
 66
1
 0
VERTEX
 8
VUE_1
 10
11604.3011254746
 20
5061.5330712803
 0
VERTEX
 8
VUE_1
 10
11604.3011254248
 20
4031.3784367469
 0
SEQEND
 0
POINT
 8
VUE_1
 10
9844.9506399463
 20
2314.4540458579
 0
POLYLINE
 8
VUE_1
 66
1
 0
VERTEX
 8
VUE_1
 10
11820.8734746174
 20
2657.8389240357
 0
VERTEX
 8
VUE_1
 10
9793.8981802215
 20
2657.8389240357
 0
SEQEND
 0
POLYLINE
 8
VUE_1
 66
1
 0
VERTEX
 8
VUE_1
 10
11820.8734746340
 20
3001.2238022135
 0
VERTEX
 8
VUE_1
 10
9793.8981802215
 20
3001.2238022135
 0
SEQEND
 0
POLYLINE
 8
VUE_1
 66
1
 0
VERTEX
 8
VUE_1
 10
11820.8734746506
 20
3344.6086803913
 0
VERTEX
 8
VUE_1
 10
9793.8981802215
 20
3344.6086803913
 0
SEQEND
 0
POLYLINE
 8
VUE_1
 66
1
 0
VERTEX
 8
VUE_1
 10
11820.8734746009
 20
2314.4540458579
 0
VERTEX
 8
VUE_1
 10
9844.9506399463
 20
2314.4540458579
 0
SEQEND
 0
POLYLINE
 8
VUE_1
 66
1
 0
VERTEX
 8
VUE_1
 10
11820.8734746672
 20
3687.9935585691
 0
VERTEX
 8
VUE_1
 10
9793.8981802215
 20
3687.9935585691
 0
SEQEND
 0
POLYLINE
 8
VUE_1
 66
1
 0
VERTEX
 8
VUE_1
 10
11820.8734746838
 20
4031.3784367469
 0
VERTEX
 8
VUE_1
 10
9793.8981802215
 20
4031.3784367469
 0
SEQEND
 0
POLYLINE
 8
VUE_1
 66
1
 0
VERTEX
 8
VUE_1
 10
11820.8734746009
 20
2314.4540458579
 0
VERTEX
 8
VUE_1
 10
9793.8981802215
 20
2314.4540458579
 0
SEQEND
 0
POLYLINE
 8
VUE_1
 66
1
 0
VERTEX
 8
VUE_1
 10
11753.5309945901
 20
4374.7633149247
 0
VERTEX
 8
VUE_1
 10
9793.8981802215
 20
4374.7633149247
 0
SEQEND
 0
POLYLINE
 8
VUE_1
 66
1
 0
VERTEX
 8
VUE_1
 10
11753.5309945901
 20
4718.1481931025
 0
VERTEX
 8
VUE_1
 10
9793.8981802215
 20
4718.1481931025
 0
SEQEND
 0
POLYLINE
 8
VUE_1
 66
1
 0
VERTEX
 8
VUE_1
 10
11753.5309945901
 20
5061.5330712803
 0
VERTEX
 8
VUE_1
 10
9793.8981802215
 20
5061.5330712803
 0
SEQEND
 0
POLYLINE
 8
VUE_1
 66
1
 0
VERTEX
 8
VUE_1
 10
11753.5309945901
 20
5404.9179494581
 0
VERTEX
 8
VUE_1
 10
9793.8981802215
 20
5404.9179494581
 0
SEQEND
 0
POLYLINE
 8
VUE_1
 66
1
 0
VERTEX
 8
VUE_1
 10
11753.5309945901
 20
5748.3028276359
 0
VERTEX
 8
VUE_1
 10
9793.8981802215
 20
5748.3028276359
 0
SEQEND
 0
POLYLINE
 8
VUE_1
 66
1
 0
VERTEX
 8
VUE_1
 10
11753.5309945901
 20
6091.6877058137
 0
VERTEX
 8
VUE_1
 10
9793.8981802215
 20
6091.6877058137
 0
SEQEND
 0
POLYLINE
 8
VUE_1
 66
1
 0
VERTEX
 8
VUE_1
 10
11753.5309945901
 20
6435.0725839915
 0
VERTEX
 8
VUE_1
 10
9793.8981802215
 20
6435.0725839915
 0
SEQEND
 0
POLYLINE
 8
VUE_1
 66
1
 0
VERTEX
 8
VUE_1
 10
11753.5309945901
 20
6778.4574621692
 0
VERTEX
 8
VUE_1
 10
9793.8981802215
 20
6778.4574621692
 0
SEQEND
 0
POLYLINE
 8
VUE_1
 66
1
 0
VERTEX
 8
VUE_1
 10
11753.5309945901
 20
7121.8423403470
 0
VERTEX
 8
VUE_1
 10
9793.8981802215
 20
7121.8423403470
 0
SEQEND
 0
POLYLINE
 8
VUE_1
 66
1
 0
VERTEX
 8
VUE_1
 10
11753.5309945901
 20
7465.2272185248
 0
VERTEX
 8
VUE_1
 10
9793.8981802215
 20
7465.2272185248
 0
SEQEND
 0
POLYLINE
 8
VUE_1
 66
1
 0
VERTEX
 8
VUE_1
 10
11753.5309945901
 20
7808.6120967026
 0
VERTEX
 8
VUE_1
 10
9793.8981802215
 20
7808.6120967026
 0
SEQEND
 0
POLYLINE
 8
VUE_1
 66
1
 0
VERTEX
 8
VUE_1
 10
11028.9168760231
 20
3344.6086803913
 0
VERTEX
 8
VUE_1
 10
10233.4394549869
 20
2313.7864301314
 0
SEQEND
 0
POINT
 8
VUE_1
 10
11025.8392512070
 20
5404.9179494581
 0
POLYLINE
 8
VUE_1
 66
1
 0
VERTEX
 8
VUE_1
 10
11025.8392512070
 20
8151.9969748804
 0
VERTEX
 8
VUE_1
 10
11025.8392512070
 20
2314.4540458579
 0
SEQEND
 0
POINT
 8
VUE_1
 10
11071.9652040290
 20
5404.9179494580
 0
POLYLINE
 8
VUE_1
 66
1
 0
VERTEX
 8
VUE_1
 10
11071.9652040290
 20
8151.9969748804
 0
VERTEX
 8
VUE_1
 10
11071.9652040290
 20
2314.4540458579
 0
SEQEND
 0
POINT
 8
VUE_1
 10
10228.8220204996
 20
5404.9179494579
 0
POINT
 8
VUE_1
 10
10178.4590724713
 20
5404.9179494581
 0
POLYLINE
 8
VUE_1
 66
1
 0
VERTEX
 8
VUE_1
 10
10228.8220204996
 20
8151.9969748804
 0
VERTEX
 8
VUE_1
 10
10228.8220204996
 20
2314.4540458579
 0
SEQEND
 0
POLYLINE
 8
VUE_1
 66
1
 0
VERTEX
 8
VUE_1
 10
10182.7529104996
 20
8151.9969748804
 0
VERTEX
 8
VUE_1
 10
10182.7529104996
 20
2314.4540458579
 0
SEQEND
 0
POLYLINE
 8
VUE_1
 66
1
 0
VERTEX
 8
VUE_1
 10
11025.8392512070
 20
2314.4540458580
 0
VERTEX
 8
VUE_1
 10
10228.8220204996
 20
3344.6086803913
 0
SEQEND
 0
POLYLINE
 8
VUE_1
 66
1
 0
VERTEX
 8
VUE_1
 10
10228.8220204996
 20
4374.7633149245
 0
VERTEX
 8
VUE_1
 10
11028.9168760231
 20
3344.6086803913
 0
SEQEND
 0
POLYLINE
 8
VUE_1
 66
1
 0
VERTEX
 8
VUE_1
 10
11025.8392512072
 20
4374.7633149247
 0
VERTEX
 8
VUE_1
 10
10228.8220204996
 20
3344.6086803913
 0
SEQEND
 0
POLYLINE
 8
VUE_1
 66
1
 0
VERTEX
 8
VUE_1
 10
11025.8392512072
 20
4374.7633149247
 0
VERTEX
 8
VUE_1
 10
10228.8220204996
 20
5404.9179494579
 0
SEQEND
 0
POLYLINE
 8
VUE_1
 66
1
 0
VERTEX
 8
VUE_1
 10
10228.8220204996
 20
4374.7633149245
 0
VERTEX
 8
VUE_1
 10
11025.8392512070
 20
5404.9179494581
 0
SEQEND
 0
POLYLINE
 8
VUE_1
 66
1
 0
VERTEX
 8
VUE_1
 10
11025.8392512070
 20
5404.9179494581
 0
VERTEX
 8
VUE_1
 10
10228.8220204996
 20
6435.0725839916
 0
SEQEND
 0
POLYLINE
 8
VUE_1
 66
1
 0
VERTEX
 8
VUE_1
 10
11025.8392512070
 20
6435.0725839915
 0
VERTEX
 8
VUE_1
 10
10228.8220204996
 20
5404.9179494579
 0
SEQEND
 0
POLYLINE
 8
VUE_1
 66
1
 0
VERTEX
 8
VUE_1
 10
10228.8220204996
 20
6435.0725839916
 0
VERTEX
 8
VUE_1
 10
11025.8392512072
 20
7465.2272185248
 0
SEQEND
 0
POLYLINE
 8
VUE_1
 66
1
 0
VERTEX
 8
VUE_1
 10
11025.8392512070
 20
6435.0725839915
 0
VERTEX
 8
VUE_1
 10
10228.8220204993
 20
7465.2272185248
 0
SEQEND
 0
POLYLINE
 8
VUE_1
 66
1
 0
VERTEX
 8
VUE_1
 10
10228.8220204993
 20
7465.2272185248
 0
VERTEX
 8
VUE_1
 10
11025.8392512070
 20
8111.8490058941
 0
SEQEND
 0
POLYLINE
 8
VUE_1
 66
1
 0
VERTEX
 8
VUE_1
 10
11025.8392512072
 20
7465.2272185248
 0
VERTEX
 8
VUE_1
 10
10228.8220204995
 20
8115.3116449434
 0
SEQEND
 0
POLYLINE
 8
VUE_1
 66
1
 0
VERTEX
 8
VUE_1
 10
11753.5309945901
 20
8151.9969748804
 0
VERTEX
 8
VUE_1
 10
9793.8981802215
 20
8151.9969748804
 0
SEQEND
 0
POLYLINE
 8
VUE_1
 66
1
 0
VERTEX
 8
VUE_1
 10
11753.5309945901
 20
8116.9793730427
 0
VERTEX
 8
VUE_1
 10
9793.8981802215
 20
8116.9793730427
 0
SEQEND
 0
POINT
 8
VUE_1
 10
11375.9039834549
 20
8189.5688083451
 0
POLYLINE
 8
VUE_1
 66
1
 0
VERTEX
 8
VUE_1
 10
11375.9039834549
 20
8189.5688083451
 0
VERTEX
 8
VUE_1
 10
9793.8981802215
 20
8189.5688083451
 0
SEQEND
 0
POLYLINE
 8
VUE_1
 66
1
 0
VERTEX
 8
VUE_1
 10
15860.0860914539
 20
22927.9589013496
 0
VERTEX
 8
VUE_1
 10
16995.0955073000
 20
22934.8169642852
 0
SEQEND
 0
POLYLINE
 8
VUE_1
 66
1
 0
VERTEX
 8
VUE_1
 10
15975.5264709248
 20
23183.8945963982
 0
VERTEX
 8
VUE_1
 10
16842.9829711366
 20
23189.1360254026
 0
SEQEND
 0
POLYLINE
 8
VUE_1
 66
1
 0
VERTEX
 8
VUE_1
 10
15776.0240829947
 20
22662.9808078180
 0
VERTEX
 8
VUE_1
 10
17084.1866252867
 20
22670.8851132095
 0
SEQEND
 0
POLYLINE
 8
VUE_1
 66
1
 0
VERTEX
 8
VUE_1
 10
16024.8766769562
 20
22082.5115496422
 0
VERTEX
 8
VUE_1
 10
16348.1635011664
 20
22084.4649443504
 0
SEQEND
 0
POLYLINE
 8
VUE_1
 66
1
 0
VERTEX
 8
VUE_1
 10
16444.0179487772
 20
21602.4694092660
 0
VERTEX
 8
VUE_1
 10
17042.2794222312
 20
21806.6664391275
 0
SEQEND
 0
POLYLINE
 8
VUE_1
 66
1
 0
VERTEX
 8
VUE_1
 10
16440.5755362937
 20
21601.2944541069
 0
VERTEX
 8
VUE_1
 10
16444.0179487772
 20
23422.3306578564
 0
SEQEND
 0
POLYLINE
 8
VUE_1
 66
1
 0
VERTEX
 8
VUE_1
 10
17042.2794222312
 20
21806.6664391275
 0
VERTEX
 8
VUE_1
 10
16440.9568947365
 20
21803.0330703813
 0
SEQEND
 0
POLYLINE
 8
VUE_1
 66
1
 0
VERTEX
 8
VUE_1
 10
15879.7495304551
 20
22906.2212682883
 0
VERTEX
 8
VUE_1
 10
15567.1595370350
 20
22173.1848167762
 0
SEQEND
 0
POLYLINE
 8
VUE_1
 66
1
 0
VERTEX
 8
VUE_1
 10
15785.1342822852
 20
22076.5085540964
 0
VERTEX
 8
VUE_1
 10
15785.6688043067
 20
22359.2707034615
 0
SEQEND
 0
POLYLINE
 8
VUE_1
 66
1
 0
VERTEX
 8
VUE_1
 10
15567.9932245762
 20
22172.8327610403
 0
VERTEX
 8
VUE_1
 10
15793.7021424206
 20
22077.5187312173
 0
SEQEND
 0
POINT
 8
VUE_1
 10
16444.0179487772
 20
23422.3306578564
 0
POLYLINE
 8
VUE_1
 66
1
 0
VERTEX
 8
VUE_1
 10
17042.2794222312
 20
21806.6664391275
 0
VERTEX
 8
VUE_1
 10
17048.0280715221
 20
21809.9592619144
 0
VERTEX
 8
VUE_1
 10
17053.7169739896
 20
21813.3629379958
 0
VERTEX
 8
VUE_1
 10
17059.3444486863
 20
21816.8756594516
 0
VERTEX
 8
VUE_1
 10
17064.9088146647
 20
21820.4956183627
 0
VERTEX
 8
VUE_1
 10
17070.4083909774
 20
21824.2210068092
 0
VERTEX
 8
VUE_1
 10
17075.8414966771
 20
21828.0500168717
 0
VERTEX
 8
VUE_1
 10
17081.2064508164
 20
21831.9808406306
 0
VERTEX
 8
VUE_1
 10
17086.5015724481
 20
21836.0116701664
 0
VERTEX
 8
VUE_1
 10
17091.7251806245
 20
21840.1406975594
 0
VERTEX
 8
VUE_1
 10
17096.8755943985
 20
21844.3661148901
 0
VERTEX
 8
VUE_1
 10
17101.9511328225
 20
21848.6861142388
 0
VERTEX
 8
VUE_1
 10
17106.9501149493
 20
21853.0988876863
 0
VERTEX
 8
VUE_1
 10
17111.8708598316
 20
21857.6026273126
 0
VERTEX
 8
VUE_1
 10
17116.7116865218
 20
21862.1955251986
 0
VERTEX
 8
VUE_1
 10
17121.4709140726
 20
21866.8757734243
 0
VERTEX
 8
VUE_1
 10
17126.1468615365
 20
21871.6415640703
 0
VERTEX
 8
VUE_1
 10
17130.7378479664
 20
21876.4910892170
 0
VERTEX
 8
VUE_1
 10
17135.2421924148
 20
21881.4225409448
 0
VERTEX
 8
VUE_1
 10
17139.6582139344
 20
21886.4341113344
 0
VERTEX
 8
VUE_1
 10
17143.9842315776
 20
21891.5239924659
 0
SEQEND
 0
POLYLINE
 8
VUE_1
 66
1
 0
VERTEX
 8
VUE_1
 10
17143.9842315776
 20
21891.5239924659
 0
VERTEX
 8
VUE_1
 10
17145.8852304653
 20
21893.8203844516
 0
VERTEX
 8
VUE_1
 10
17147.7668741365
 20
21896.1321323944
 0
VERTEX
 8
VUE_1
 10
17149.6280684355
 20
21898.4593550219
 0
VERTEX
 8
VUE_1
 10
17151.4677192066
 20
21900.8021710614
 0
VERTEX
 8
VUE_1
 10
17153.2847322943
 20
21903.1606992404
 0
VERTEX
 8
VUE_1
 10
17155.0780135431
 20
21905.5350582866
 0
VERTEX
 8
VUE_1
 10
17156.8464687974
 20
21907.9253669270
 0
VERTEX
 8
VUE_1
 10
17158.5890039016
 20
21910.3317438896
 0
VERTEX
 8
VUE_1
 10
17160.3045247002
 20
21912.7543079015
 0
VERTEX
 8
VUE_1
 10
17161.9919370376
 20
21915.1931776901
 0
VERTEX
 8
VUE_1
 10
17163.6501467581
 20
21917.6484719832
 0
VERTEX
 8
VUE_1
 10
17165.2780597064
 20
21920.1203095081
 0
VERTEX
 8
VUE_1
 10
17166.8745817269
 20
21922.6088089923
 0
VERTEX
 8
VUE_1
 10
17168.4386186638
 20
21925.1140891631
 0
VERTEX
 8
VUE_1
 10
17169.9690763619
 20
21927.6362687481
 0
VERTEX
 8
VUE_1
 10
17171.4648606652
 20
21930.1754664748
 0
VERTEX
 8
VUE_1
 10
17172.9248774184
 20
21932.7318010704
 0
VERTEX
 8
VUE_1
 10
17174.3480324660
 20
21935.3053912627
 0
VERTEX
 8
VUE_1
 10
17175.7332316522
 20
21937.8963557792
 0
VERTEX
 8
VUE_1
 10
17177.0793808216
 20
21940.5048133470
 0
SEQEND
 0
POLYLINE
 8
VUE_1
 66
1
 0
VERTEX
 8
VUE_1
 10
17177.0793808216
 20
21940.5048133470
 0
VERTEX
 8
VUE_1
 10
17180.9399350513
 20
21948.5675697452
 0
VERTEX
 8
VUE_1
 10
17184.4402627712
 20
21956.7838803460
 0
VERTEX
 8
VUE_1
 10
17187.5935749111
 20
21965.1434674119
 0
VERTEX
 8
VUE_1
 10
17190.4130824004
 20
21973.6360532057
 0
VERTEX
 8
VUE_1
 10
17192.9119961687
 20
21982.2513599902
 0
VERTEX
 8
VUE_1
 10
17195.1035271456
 20
21990.9791100279
 0
VERTEX
 8
VUE_1
 10
17197.0008862606
 20
21999.8090255816
 0
VERTEX
 8
VUE_1
 10
17198.6172844434
 20
22008.7308289140
 0
VERTEX
 8
VUE_1
 10
17199.9659326233
 20
22017.7342422879
 0
VERTEX
 8
VUE_1
 10
17201.0600417302
 20
22026.8089879658
 0
VERTEX
 8
VUE_1
 10
17201.9128226934
 20
22035.9447882105
 0
VERTEX
 8
VUE_1
 10
17202.5374864424
 20
22045.1313652848
 0
VERTEX
 8
VUE_1
 10
17202.9472439072
 20
22054.3584414512
 0
VERTEX
 8
VUE_1
 10
17203.1553060168
 20
22063.6157389727
 0
VERTEX
 8
VUE_1
 10
17203.1748837012
 20
22072.8929801116
 0
VERTEX
 8
VUE_1
 10
17203.0191878898
 20
22082.1798871308
 0
VERTEX
 8
VUE_1
 10
17202.7014295121
 20
22091.4661822931
 0
VERTEX
 8
VUE_1
 10
17202.2348194978
 20
22100.7415878610
 0
VERTEX
 8
VUE_1
 10
17201.6325687764
 20
22109.9958260974
 0
VERTEX
 8
VUE_1
 10
17200.9078882774
 20
22119.2186192648
 0
SEQEND
 0
POLYLINE
 8
VUE_1
 66
1
 0
VERTEX
 8
VUE_1
 10
17200.9078882774
 20
22119.2186192648
 0
VERTEX
 8
VUE_1
 10
17199.6897671423
 20
22132.2518037029
 0
VERTEX
 8
VUE_1
 10
17198.2647143459
 20
22145.2059463002
 0
VERTEX
 8
VUE_1
 10
17196.6462040289
 20
22158.0862026666
 0
VERTEX
 8
VUE_1
 10
17194.8477103322
 20
22170.8977284118
 0
VERTEX
 8
VUE_1
 10
17192.8827073964
 20
22183.6456791460
 0
VERTEX
 8
VUE_1
 10
17190.7646693622
 20
22196.3352104787
 0
VERTEX
 8
VUE_1
 10
17188.5070703706
 20
22208.9714780200
 0
VERTEX
 8
VUE_1
 10
17186.1233845620
 20
22221.5596373796
 0
VERTEX
 8
VUE_1
 10
17183.6270860775
 20
22234.1048441675
 0
VERTEX
 8
VUE_1
 10
17181.0316490576
 20
22246.6122539934
 0
VERTEX
 8
VUE_1
 10
17178.3505476430
 20
22259.0870224675
 0
VERTEX
 8
VUE_1
 10
17175.5972559748
 20
22271.5343051992
 0
VERTEX
 8
VUE_1
 10
17172.7852481935
 20
22283.9592577988
 0
VERTEX
 8
VUE_1
 10
17169.9279984398
 20
22296.3670358759
 0
VERTEX
 8
VUE_1
 10
17167.0389808545
 20
22308.7627950404
 0
VERTEX
 8
VUE_1
 10
17164.1316695784
 20
22321.1516909021
 0
VERTEX
 8
VUE_1
 10
17161.2195387524
 20
22333.5388790712
 0
VERTEX
 8
VUE_1
 10
17158.3160625168
 20
22345.9295151572
 0
VERTEX
 8
VUE_1
 10
17155.4347150128
 20
22358.3287547699
 0
VERTEX
 8
VUE_1
 10
17152.5889703811
 20
22370.7417535196
 0
SEQEND
 0
POLYLINE
 8
VUE_1
 66
1
 0
VERTEX
 8
VUE_1
 10
17152.5889703811
 20
22370.7417535196
 0
VERTEX
 8
VUE_1
 10
17149.2339121939
 20
22385.6647128918
 0
VERTEX
 8
VUE_1
 10
17145.9411402383
 20
22400.6125678216
 0
VERTEX
 8
VUE_1
 10
17142.7022337136
 20
22415.5829627052
 0
VERTEX
 8
VUE_1
 10
17139.5087718192
 20
22430.5735419392
 0
VERTEX
 8
VUE_1
 10
17136.3523337541
 20
22445.5819499194
 0
VERTEX
 8
VUE_1
 10
17133.2244987180
 20
22460.6058310424
 0
VERTEX
 8
VUE_1
 10
17130.1168459102
 20
22475.6428297044
 0
VERTEX
 8
VUE_1
 10
17127.0209545296
 20
22490.6905903015
 0
VERTEX
 8
VUE_1
 10
17123.9284037760
 20
22505.7467572300
 0
VERTEX
 8
VUE_1
 10
17120.8307728485
 20
22520.8089748864
 0
VERTEX
 8
VUE_1
 10
17117.7196409466
 20
22535.8748876669
 0
VERTEX
 8
VUE_1
 10
17114.5865872694
 20
22550.9421399676
 0
VERTEX
 8
VUE_1
 10
17111.4231910163
 20
22566.0083761848
 0
VERTEX
 8
VUE_1
 10
17108.2210313866
 20
22581.0712407149
 0
VERTEX
 8
VUE_1
 10
17104.9716875796
 20
22596.1283779541
 0
VERTEX
 8
VUE_1
 10
17101.6667387948
 20
22611.1774322985
 0
VERTEX
 8
VUE_1
 10
17098.2977642313
 20
22626.2160481448
 0
VERTEX
 8
VUE_1
 10
17094.8563430887
 20
22641.2418698888
 0
VERTEX
 8
VUE_1
 10
17091.3340545660
 20
22656.2525419269
 0
VERTEX
 8
VUE_1
 10
17087.7224778626
 20
22671.2457086556
 0
SEQEND
 0
POLYLINE
 8
VUE_1
 66
1
 0
VERTEX
 8
VUE_1
 10
17087.7224778626
 20
22671.2457086556
 0
VERTEX
 8
VUE_1
 10
17084.3172933748
 20
22685.0090879316
 0
VERTEX
 8
VUE_1
 10
17080.8253727752
 20
22698.7526736822
 0
VERTEX
 8
VUE_1
 10
17077.2425289130
 20
22712.4734517787
 0
VERTEX
 8
VUE_1
 10
17073.5645746373
 20
22726.1684080921
 0
VERTEX
 8
VUE_1
 10
17069.7873227974
 20
22739.8345284938
 0
VERTEX
 8
VUE_1
 10
17065.9065862423
 20
22753.4687988548
 0
VERTEX
 8
VUE_1
 10
17061.9181778212
 20
22767.0682050464
 0
VERTEX
 8
VUE_1
 10
17057.8179103832
 20
22780.6297329400
 0
VERTEX
 8
VUE_1
 10
17053.6015967776
 20
22794.1503684067
 0
VERTEX
 8
VUE_1
 10
17049.2650498535
 20
22807.6270973176
 0
VERTEX
 8
VUE_1
 10
17044.8040824599
 20
22821.0569055441
 0
VERTEX
 8
VUE_1
 10
17040.2145074460
 20
22834.4367789572
 0
VERTEX
 8
VUE_1
 10
17035.4921376610
 20
22847.7637034284
 0
VERTEX
 8
VUE_1
 10
17030.6327859541
 20
22861.0346648288
 0
VERTEX
 8
VUE_1
 10
17025.6322651744
 20
22874.2466490296
 0
VERTEX
 8
VUE_1
 10
17020.4863881710
 20
22887.3966419020
 0
VERTEX
 8
VUE_1
 10
17015.1909677931
 20
22900.4816293172
 0
VERTEX
 8
VUE_1
 10
17009.7418168898
 20
22913.4985971466
 0
VERTEX
 8
VUE_1
 10
17004.1347483104
 20
22926.4445312612
 0
VERTEX
 8
VUE_1
 10
16998.3655749038
 20
22939.3164175323
 0
SEQEND
 0
POLYLINE
 8
VUE_1
 66
1
 0
VERTEX
 8
VUE_1
 10
16998.3655749038
 20
22939.3164175323
 0
VERTEX
 8
VUE_1
 10
16992.1462048998
 20
22952.7157018776
 0
VERTEX
 8
VUE_1
 10
16985.7475509723
 20
22966.0306498411
 0
VERTEX
 8
VUE_1
 10
16979.1727412330
 20
22979.2614572671
 0
VERTEX
 8
VUE_1
 10
16972.4249037931
 20
22992.4083200004
 0
VERTEX
 8
VUE_1
 10
16965.5071667642
 20
23005.4714338857
 0
VERTEX
 8
VUE_1
 10
16958.4226582579
 20
23018.4509947676
 0
VERTEX
 8
VUE_1
 10
16951.1745063853
 20
23031.3471984909
 0
VERTEX
 8
VUE_1
 10
16943.7658392583
 20
23044.1602409002
 0
VERTEX
 8
VUE_1
 10
16936.1997849880
 20
23056.8903178400
 0
VERTEX
 8
VUE_1
 10
16928.4794716860
 20
23069.5376251550
 0
VERTEX
 8
VUE_1
 10
16920.6080274636
 20
23082.1023586902
 0
VERTEX
 8
VUE_1
 10
16912.5885804325
 20
23094.5847142897
 0
VERTEX
 8
VUE_1
 10
16904.4242587041
 20
23106.9848877986
 0
VERTEX
 8
VUE_1
 10
16896.1181903897
 20
23119.3030750616
 0
VERTEX
 8
VUE_1
 10
16887.6735036009
 20
23131.5394719229
 0
VERTEX
 8
VUE_1
 10
16879.0933264492
 20
23143.6942742276
 0
VERTEX
 8
VUE_1
 10
16870.3807870460
 20
23155.7676778202
 0
VERTEX
 8
VUE_1
 10
16861.5390135027
 20
23167.7598785453
 0
VERTEX
 8
VUE_1
 10
16852.5711339308
 20
23179.6710722476
 0
VERTEX
 8
VUE_1
 10
16843.4802764416
 20
23191.5014547719
 0
SEQEND
 0
POLYLINE
 8
VUE_1
 66
1
 0
VERTEX
 8
VUE_1
 10
16843.4802764416
 20
23191.5014547719
 0
VERTEX
 8
VUE_1
 10
16837.0679572612
 20
23199.7032718113
 0
VERTEX
 8
VUE_1
 10
16830.5926084204
 20
23207.8581284813
 0
VERTEX
 8
VUE_1
 10
16824.0494960268
 20
23215.9582762634
 0
VERTEX
 8
VUE_1
 10
16817.4338861879
 20
23223.9959666392
 0
VERTEX
 8
VUE_1
 10
16810.7410450107
 20
23231.9634510907
 0
VERTEX
 8
VUE_1
 10
16803.9662386027
 20
23239.8529810990
 0
VERTEX
 8
VUE_1
 10
16797.1047330713
 20
23247.6568081463
 0
VERTEX
 8
VUE_1
 10
16790.1517945236
 20
23255.3671837137
 0
VERTEX
 8
VUE_1
 10
16783.1026890674
 20
23262.9763592833
 0
VERTEX
 8
VUE_1
 10
16775.9526828096
 20
23270.4765863366
 0
VERTEX
 8
VUE_1
 10
16768.6970418576
 20
23277.8601163551
 0
VERTEX
 8
VUE_1
 10
16761.3310323191
 20
23285.1192008204
 0
VERTEX
 8
VUE_1
 10
16753.8499203009
 20
23292.2460912144
 0
VERTEX
 8
VUE_1
 10
16746.2489719108
 20
23299.2330390188
 0
VERTEX
 8
VUE_1
 10
16738.5234532560
 20
23306.0722957148
 0
VERTEX
 8
VUE_1
 10
16730.6686304438
 20
23312.7561127843
 0
VERTEX
 8
VUE_1
 10
16722.6797695815
 20
23319.2767417092
 0
VERTEX
 8
VUE_1
 10
16714.5521367766
 20
23325.6264339707
 0
VERTEX
 8
VUE_1
 10
16706.2809981362
 20
23331.7974410505
 0
VERTEX
 8
VUE_1
 10
16697.8616197679
 20
23337.7820144305
 0
SEQEND
 0
POLYLINE
 8
VUE_1
 66
1
 0
VERTEX
 8
VUE_1
 10
16697.8616197679
 20
23337.7820144305
 0
VERTEX
 8
VUE_1
 10
16686.7234948760
 20
23345.2518988162
 0
VERTEX
 8
VUE_1
 10
16675.3416805455
 20
23352.3933537365
 0
VERTEX
 8
VUE_1
 10
16663.7295274958
 20
23359.2042323089
 0
VERTEX
 8
VUE_1
 10
16651.9003864463
 20
23365.6823876513
 0
VERTEX
 8
VUE_1
 10
16639.8676081166
 20
23371.8256728814
 0
VERTEX
 8
VUE_1
 10
16627.6445432260
 20
23377.6319411166
 0
VERTEX
 8
VUE_1
 10
16615.2445424943
 20
23383.0990454748
 0
VERTEX
 8
VUE_1
 10
16602.6809566406
 20
23388.2248390736
 0
VERTEX
 8
VUE_1
 10
16589.9671363845
 20
23393.0071750307
 0
VERTEX
 8
VUE_1
 10
16577.1164324454
 20
23397.4439064637
 0
VERTEX
 8
VUE_1
 10
16564.1421955430
 20
23401.5328864902
 0
VERTEX
 8
VUE_1
 10
16551.0577763965
 20
23405.2719682280
 0
VERTEX
 8
VUE_1
 10
16537.8765257255
 20
23408.6590047948
 0
VERTEX
 8
VUE_1
 10
16524.6117942496
 20
23411.6918493083
 0
VERTEX
 8
VUE_1
 10
16511.2769326878
 20
23414.3683548859
 0
VERTEX
 8
VUE_1
 10
16497.8852917602
 20
23416.6863746454
 0
VERTEX
 8
VUE_1
 10
16484.4502221857
 20
23418.6437617047
 0
VERTEX
 8
VUE_1
 10
16470.9850746841
 20
23420.2383691811
 0
VERTEX
 8
VUE_1
 10
16457.5031999748
 20
23421.4680501924
 0
VERTEX
 8
VUE_1
 10
16444.0179487772
 20
23422.3306578564
 0
SEQEND
 0
POLYLINE
 8
VUE_1
 66
1
 0
VERTEX
 8
VUE_1
 10
16444.0179487772
 20
23422.3306578564
 0
VERTEX
 8
VUE_1
 10
16435.4408000877
 20
23422.6877644820
 0
VERTEX
 8
VUE_1
 10
16426.8689407608
 20
23422.8965550165
 0
VERTEX
 8
VUE_1
 10
16418.3036213740
 20
23422.9582187357
 0
VERTEX
 8
VUE_1
 10
16409.7460925054
 20
23422.8739449146
 0
VERTEX
 8
VUE_1
 10
16401.1976047321
 20
23422.6449228284
 0
VERTEX
 8
VUE_1
 10
16392.6594086324
 20
23422.2723417527
 0
VERTEX
 8
VUE_1
 10
16384.1327547834
 20
23421.7573909626
 0
VERTEX
 8
VUE_1
 10
16375.6188937633
 20
23421.1012597334
 0
VERTEX
 8
VUE_1
 10
16367.1190761494
 20
23420.3051373404
 0
VERTEX
 8
VUE_1
 10
16358.6345525194
 20
23419.3702130592
 0
VERTEX
 8
VUE_1
 10
16350.1665734512
 20
23418.2976761647
 0
VERTEX
 8
VUE_1
 10
16341.7163895223
 20
23417.0887159324
 0
VERTEX
 8
VUE_1
 10
16333.2852513104
 20
23415.7445216376
 0
VERTEX
 8
VUE_1
 10
16324.8744093933
 20
23414.2662825556
 0
VERTEX
 8
VUE_1
 10
16316.4851143485
 20
23412.6551879616
 0
VERTEX
 8
VUE_1
 10
16308.1186167538
 20
23410.9124271311
 0
VERTEX
 8
VUE_1
 10
16299.7761671868
 20
23409.0391893392
 0
VERTEX
 8
VUE_1
 10
16291.4590162252
 20
23407.0366638613
 0
VERTEX
 8
VUE_1
 10
16283.1684144467
 20
23404.9060399728
 0
VERTEX
 8
VUE_1
 10
16274.9056124290
 20
23402.6485069488
 0
SEQEND
 0
POLYLINE
 8
VUE_1
 66
1
 0
VERTEX
 8
VUE_1
 10
16274.9056124290
 20
23402.6485069488
 0
VERTEX
 8
VUE_1
 10
16263.8595903654
 20
23399.4201362684
 0
VERTEX
 8
VUE_1
 10
16252.8722616705
 20
23395.9664805592
 0
VERTEX
 8
VUE_1
 10
16241.9499652810
 20
23392.2888267437
 0
VERTEX
 8
VUE_1
 10
16231.0990401336
 20
23388.3884617442
 0
VERTEX
 8
VUE_1
 10
16220.3258251649
 20
23384.2666724830
 0
VERTEX
 8
VUE_1
 10
16209.6366593118
 20
23379.9247458825
 0
VERTEX
 8
VUE_1
 10
16199.0378815109
 20
23375.3639688652
 0
VERTEX
 8
VUE_1
 10
16188.5358306989
 20
23370.5856283532
 0
VERTEX
 8
VUE_1
 10
16178.1368458126
 20
23365.5910112689
 0
VERTEX
 8
VUE_1
 10
16167.8472657887
 20
23360.3814045348
 0
VERTEX
 8
VUE_1
 10
16157.6734295638
 20
23354.9580950732
 0
VERTEX
 8
VUE_1
 10
16147.6216760747
 20
23349.3223698065
 0
VERTEX
 8
VUE_1
 10
16137.6983442581
 20
23343.4755156569
 0
VERTEX
 8
VUE_1
 10
16127.9097730507
 20
23337.4188195468
 0
VERTEX
 8
VUE_1
 10
16118.2623013892
 20
23331.1535683986
 0
VERTEX
 8
VUE_1
 10
16108.7622682103
 20
23324.6810491346
 0
VERTEX
 8
VUE_1
 10
16099.4160124508
 20
23318.0025486772
 0
VERTEX
 8
VUE_1
 10
16090.2298730474
 20
23311.1193539487
 0
VERTEX
 8
VUE_1
 10
16081.2101889367
 20
23304.0327518714
 0
VERTEX
 8
VUE_1
 10
16072.3632990555
 20
23296.7440293680
 0
SEQEND
 0
POLYLINE
 8
VUE_1
 66
1
 0
VERTEX
 8
VUE_1
 10
16072.3632990555
 20
23296.7440293680
 0
VERTEX
 8
VUE_1
 10
16065.1153035786
 20
23290.5071309341
 0
VERTEX
 8
VUE_1
 10
16057.9911971442
 20
23284.1341112928
 0
VERTEX
 8
VUE_1
 10
16050.9900753129
 20
23277.6287603024
 0
VERTEX
 8
VUE_1
 10
16044.1110336457
 20
23270.9948678208
 0
VERTEX
 8
VUE_1
 10
16037.3531677032
 20
23264.2362237066
 0
VERTEX
 8
VUE_1
 10
16030.7155730462
 20
23257.3566178180
 0
VERTEX
 8
VUE_1
 10
16024.1973452355
 20
23250.3598400133
 0
VERTEX
 8
VUE_1
 10
16017.7975798318
 20
23243.2496801509
 0
VERTEX
 8
VUE_1
 10
16011.5153723958
 20
23236.0299280889
 0
VERTEX
 8
VUE_1
 10
16005.3498184885
 20
23228.7043736857
 0
VERTEX
 8
VUE_1
 10
15999.3000136704
 20
23221.2768067996
 0
VERTEX
 8
VUE_1
 10
15993.3650535024
 20
23213.7510172888
 0
VERTEX
 8
VUE_1
 10
15987.5440335452
 20
23206.1307950116
 0
VERTEX
 8
VUE_1
 10
15981.8360493597
 20
23198.4199298264
 0
VERTEX
 8
VUE_1
 10
15976.2401965065
 20
23190.6222115912
 0
VERTEX
 8
VUE_1
 10
15970.7555705464
 20
23182.7414301648
 0
VERTEX
 8
VUE_1
 10
15965.3812670402
 20
23174.7813754050
 0
VERTEX
 8
VUE_1
 10
15960.1163815486
 20
23166.7458371703
 0
VERTEX
 8
VUE_1
 10
15954.9600096325
 20
23158.6386053189
 0
VERTEX
 8
VUE_1
 10
15949.9112468525
 20
23150.4634697092
 0
SEQEND
 0
POLYLINE
 8
VUE_1
 66
1
 0
VERTEX
 8
VUE_1
 10
15949.9112468525
 20
23150.4634697092
 0
VERTEX
 8
VUE_1
 10
15943.7127858430
 20
23140.0893328829
 0
VERTEX
 8
VUE_1
 10
15937.6846984206
 20
23129.6169571161
 0
VERTEX
 8
VUE_1
 10
15931.8285399217
 20
23119.0495385199
 0
VERTEX
 8
VUE_1
 10
15926.1458656822
 20
23108.3902732056
 0
VERTEX
 8
VUE_1
 10
15920.6382310385
 20
23097.6423572845
 0
VERTEX
 8
VUE_1
 10
15915.3071913266
 20
23086.8089868681
 0
VERTEX
 8
VUE_1
 10
15910.1543018827
 20
23075.8933580675
 0
VERTEX
 8
VUE_1
 10
15905.1811180430
 20
23064.8986669940
 0
VERTEX
 8
VUE_1
 10
15900.3891951437
 20
23053.8281097592
 0
VERTEX
 8
VUE_1
 10
15895.7800885208
 20
23042.6848824740
 0
VERTEX
 8
VUE_1
 10
15891.3553535105
 20
23031.4721812501
 0
VERTEX
 8
VUE_1
 10
15887.1165454491
 20
23020.1932021985
 0
VERTEX
 8
VUE_1
 10
15883.0652196726
 20
23008.8511414307
 0
VERTEX
 8
VUE_1
 10
15879.2029315173
 20
22997.4491950579
 0
VERTEX
 8
VUE_1
 10
15875.5312363192
 20
22985.9905591913
 0
VERTEX
 8
VUE_1
 10
15872.0516894146
 20
22974.4784299425
 0
VERTEX
 8
VUE_1
 10
15868.7658461396
 20
22962.9160034226
 0
VERTEX
 8
VUE_1
 10
15865.6752618304
 20
22951.3064757430
 0
VERTEX
 8
VUE_1
 10
15862.7814918231
 20
22939.6530430148
 0
VERTEX
 8
VUE_1
 10
15860.0860914539
 20
22927.9589013496
 0
SEQEND
 0
POLYLINE
 8
VUE_1
 66
1
 0
VERTEX
 8
VUE_1
 10
16347.1898818171
 20
21569.4203085670
 0
VERTEX
 8
VUE_1
 10
16349.7222838478
 20
22909.0609828103
 0
SEQEND
 0
POLYLINE
 8
VUE_1
 66
1
 0
VERTEX
 8
VUE_1
 10
15860.0860914539
 20
22927.9589013496
 0
VERTEX
 8
VUE_1
 10
16995.0955073000
 20
22934.8169642852
 0
SEQEND
 0
POLYLINE
 8
VUE_1
 66
1
 0
VERTEX
 8
VUE_1
 10
15879.7495304551
 20
22906.2212682883
 0
VERTEX
 8
VUE_1
 10
16443.0487507264
 20
22909.6248889546
 0
SEQEND
 0
POLYLINE
 8
VUE_1
 66
1
 0
VERTEX
 8
VUE_1
 10
16296.7484109301
 20
22664.6266788068
 0
VERTEX
 8
VUE_1
 10
16186.2178127917
 20
22083.4864205536
 0
SEQEND
 0
POLYLINE
 8
VUE_1
 66
1
 0
VERTEX
 8
VUE_1
 10
16344.4054258415
 20
22593.1411564396
 0
VERTEX
 8
VUE_1
 10
16247.5415682707
 20
22083.8569568404
 0
SEQEND
 0
POLYLINE
 8
VUE_1
 66
1
 0
VERTEX
 8
VUE_1
 10
16508.2575997681
 20
21624.3955176880
 0
VERTEX
 8
VUE_1
 10
16511.2049780315
 20
23183.5586189534
 0
SEQEND
 0
POLYLINE
 8
VUE_1
 66
1
 0
VERTEX
 8
VUE_1
 10
16092.2203886019
 20
21209.1020150536
 0
VERTEX
 8
VUE_1
 10
15460.1030380406
 20
21428.1919030493
 0
SEQEND
 0
POLYLINE
 8
VUE_1
 66
1
 0
VERTEX
 8
VUE_1
 10
12086.3710373503
 20
22076.6875575898
 0
VERTEX
 8
VUE_1
 10
15505.1181656343
 20
22020.3270299422
 0
VERTEX
 8
VUE_1
 10
16020.8245226401
 20
22033.2399858183
 0
SEQEND
 0
POLYLINE
 8
VUE_1
 66
1
 0
VERTEX
 8
VUE_1
 10
12097.1010112430
 20
22051.5072691740
 0
VERTEX
 8
VUE_1
 10
15505.2250620167
 20
21995.3218706691
 0
VERTEX
 8
VUE_1
 10
16021.4503104352
 20
22008.2478192529
 0
SEQEND
 0
POLYLINE
 8
VUE_1
 66
1
 0
VERTEX
 8
VUE_1
 10
15567.1595370350
 20
22173.1848167762
 0
VERTEX
 8
VUE_1
 10
14433.4721301525
 20
22092.6492692616
 0
SEQEND
 0
POLYLINE
 8
VUE_1
 66
1
 6
CENTER
 0
VERTEX
 8
VUE_1
 10
14433.4721301525
 20
22092.6492692616
 0
VERTEX
 8
VUE_1
 10
14811.3635072179
 20
21365.5052331711
 0
SEQEND
 0
POLYLINE
 8
VUE_1
 66
1
 6
CENTER
 0
VERTEX
 8
VUE_1
 10
14811.3635072179
 20
21365.5052331711
 0
VERTEX
 8
VUE_1
 10
15116.0114162817
 20
22001.7383401002
 0
SEQEND
 0
POLYLINE
 8
VUE_1
 66
1
 6
CENTER
 0
VERTEX
 8
VUE_1
 10
15174.3325270466
 20
22000.7768742612
 0
VERTEX
 8
VUE_1
 10
15480.5316019103
 20
21434.6572596580
 0
SEQEND
 0
POLYLINE
 8
VUE_1
 66
1
 6
CENTER
 0
VERTEX
 8
VUE_1
 10
15480.5316019103
 20
21434.6572596580
 0
VERTEX
 8
VUE_1
 10
15675.4145856464
 20
21886.5902004368
 0
SEQEND
 0
POLYLINE
 8
VUE_1
 66
1
 62
5
 0
VERTEX
 8
VUE_1
 10
9673.5309929816
 20
21798.1606907237
 0
VERTEX
 8
VUE_1
 10
7936.3539495617
 20
21506.6481046705
 0
SEQEND
 0
POLYLINE
 8
VUE_1
 66
1
 6
CENTER
 0
VERTEX
 8
VUE_1
 10
8966.6907726244
 20
21666.9227215913
 0
VERTEX
 8
VUE_1
 10
8966.6907726244
 20
20856.3388440932
 0
SEQEND
 0
POLYLINE
 8
VUE_1
 66
1
 6
CENTER
 0
VERTEX
 8
VUE_1
 10
7558.5637811054
 20
21294.8566465965
 0
VERTEX
 8
VUE_1
 10
17100.6275813585
 20
21352.0975812110
 0
SEQEND
 0
POLYLINE
 8
VUE_1
 66
1
 6
DOT
 0
VERTEX
 8
VUE_1
 10
9781.3387462819
 20
20624.8581876518
 0
VERTEX
 8
VUE_1
 10
10016.4756414943
 20
20596.7564611508
 0
SEQEND
 0
POLYLINE
 8
VUE_1
 66
1
 62
5
 0
VERTEX
 8
VUE_1
 10
8255.8212723745
 20
20881.8027600255
 0
VERTEX
 8
VUE_1
 10
9247.0346905753
 20
20846.2966999916
 0
SEQEND
 0
POLYLINE
 8
VUE_1
 66
1
 0
VERTEX
 8
VUE_1
 10
8251.1790899420
 20
21540.9926654392
 0
VERTEX
 8
VUE_1
 10
8255.8212723745
 20
20881.8027600255
 0
SEQEND
 0
POLYLINE
 8
VUE_1
 66
1
 0
VERTEX
 8
VUE_1
 10
7938.3625820669
 20
21506.9851697140
 0
VERTEX
 8
VUE_1
 10
7941.1327092513
 20
21113.6271095203
 0
SEQEND
 0
POLYLINE
 8
VUE_1
 66
1
 0
VERTEX
 8
VUE_1
 10
8255.8212723745
 20
20881.8027600255
 0
VERTEX
 8
VUE_1
 10
8253.5461315602
 20
20882.6162041345
 0
VERTEX
 8
VUE_1
 10
8251.2759344570
 20
20883.4691006130
 0
VERTEX
 8
VUE_1
 10
8249.0131784437
 20
20884.3618250180
 0
VERTEX
 8
VUE_1
 10
8246.7603608990
 20
20885.2947529070
 0
VERTEX
 8
VUE_1
 10
8244.5199792019
 20
20886.2682598375
 0
VERTEX
 8
VUE_1
 10
8242.2945307312
 20
20887.2827213668
 0
VERTEX
 8
VUE_1
 10
8240.0865128657
 20
20888.3385130520
 0
VERTEX
 8
VUE_1
 10
8237.8984229842
 20
20889.4360104510
 0
VERTEX
 8
VUE_1
 10
8235.7327584655
 20
20890.5755891207
 0
VERTEX
 8
VUE_1
 10
8233.5920166886
 20
20891.7576246185
 0
VERTEX
 8
VUE_1
 10
8231.4786950322
 20
20892.9824925020
 0
VERTEX
 8
VUE_1
 10
8229.3952908752
 20
20894.2505683284
 0
VERTEX
 8
VUE_1
 10
8227.3443015964
 20
20895.5622276552
 0
VERTEX
 8
VUE_1
 10
8225.3282245747
 20
20896.9178460395
 0
VERTEX
 8
VUE_1
 10
8223.3495571888
 20
20898.3177990389
 0
VERTEX
 8
VUE_1
 10
8221.4107968177
 20
20899.7624622107
 0
VERTEX
 8
VUE_1
 10
8219.5144408401
 20
20901.2522111123
 0
VERTEX
 8
VUE_1
 10
8217.6629866348
 20
20902.7874213009
 0
VERTEX
 8
VUE_1
 10
8215.8589315808
 20
20904.3684683341
 0
VERTEX
 8
VUE_1
 10
8214.1047730569
 20
20905.9957277690
 0
SEQEND
 0
POLYLINE
 8
VUE_1
 66
1
 0
VERTEX
 8
VUE_1
 10
8214.1047730569
 20
20905.9957277690
 0
VERTEX
 8
VUE_1
 10
8211.4110644354
 20
20908.6892281885
 0
VERTEX
 8
VUE_1
 10
8208.8451824560
 20
20911.4951427710
 0
VERTEX
 8
VUE_1
 10
8206.4013943220
 20
20914.4071264222
 0
VERTEX
 8
VUE_1
 10
8204.0739672364
 20
20917.4188340484
 0
VERTEX
 8
VUE_1
 10
8201.8571684023
 20
20920.5239205551
 0
VERTEX
 8
VUE_1
 10
8199.7452650227
 20
20923.7160408482
 0
VERTEX
 8
VUE_1
 10
8197.7325243008
 20
20926.9888498334
 0
VERTEX
 8
VUE_1
 10
8195.8132134396
 20
20930.3360024169
 0
VERTEX
 8
VUE_1
 10
8193.9815996422
 20
20933.7511535043
 0
VERTEX
 8
VUE_1
 10
8192.2319501118
 20
20937.2279580014
 0
VERTEX
 8
VUE_1
 10
8190.5585320514
 20
20940.7600708142
 0
VERTEX
 8
VUE_1
 10
8188.9556126641
 20
20944.3411468484
 0
VERTEX
 8
VUE_1
 10
8187.4174591529
 20
20947.9648410100
 0
VERTEX
 8
VUE_1
 10
8185.9383387210
 20
20951.6248082046
 0
VERTEX
 8
VUE_1
 10
8184.5125185715
 20
20955.3147033384
 0
VERTEX
 8
VUE_1
 10
8183.1342659075
 20
20959.0281813168
 0
VERTEX
 8
VUE_1
 10
8181.7978479320
 20
20962.7588970460
 0
VERTEX
 8
VUE_1
 10
8180.4975318481
 20
20966.5005054317
 0
VERTEX
 8
VUE_1
 10
8179.2275848589
 20
20970.2466613797
 0
VERTEX
 8
VUE_1
 10
8177.9822741675
 20
20973.9910197960
 0
SEQEND
 0
POLYLINE
 8
VUE_1
 66
1
 0
VERTEX
 8
VUE_1
 10
8177.9822741675
 20
20973.9910197960
 0
VERTEX
 8
VUE_1
 10
8176.1904435289
 20
20979.4713698060
 0
VERTEX
 8
VUE_1
 10
8174.4364672958
 20
20984.9357659494
 0
VERTEX
 8
VUE_1
 10
8172.7175134353
 20
20990.3857799202
 0
VERTEX
 8
VUE_1
 10
8171.0307499148
 20
20995.8229834124
 0
VERTEX
 8
VUE_1
 10
8169.3733447013
 20
21001.2489481199
 0
VERTEX
 8
VUE_1
 10
8167.7424657620
 20
21006.6652457367
 0
VERTEX
 8
VUE_1
 10
8166.1352810642
 20
21012.0734479567
 0
VERTEX
 8
VUE_1
 10
8164.5489585749
 20
21017.4751264738
 0
VERTEX
 8
VUE_1
 10
8162.9806662615
 20
21022.8718529823
 0
VERTEX
 8
VUE_1
 10
8161.4275720910
 20
21028.2651991757
 0
VERTEX
 8
VUE_1
 10
8159.8868440307
 20
21033.6567367484
 0
VERTEX
 8
VUE_1
 10
8158.3556500477
 20
21039.0480373940
 0
VERTEX
 8
VUE_1
 10
8156.8311581092
 20
21044.4406728067
 0
VERTEX
 8
VUE_1
 10
8155.3105361825
 20
21049.8362146803
 0
VERTEX
 8
VUE_1
 10
8153.7909522346
 20
21055.2362347087
 0
VERTEX
 8
VUE_1
 10
8152.2695742328
 20
21060.6423045863
 0
VERTEX
 8
VUE_1
 10
8150.7435701442
 20
21066.0559960065
 0
VERTEX
 8
VUE_1
 10
8149.2101079361
 20
21071.4788806636
 0
VERTEX
 8
VUE_1
 10
8147.6663555756
 20
21076.9125302516
 0
VERTEX
 8
VUE_1
 10
8146.1094810298
 20
21082.3585164641
 0
SEQEND
 0
POLYLINE
 8
VUE_1
 66
1
 0
VERTEX
 8
VUE_1
 10
8146.1094810298
 20
21082.3585164641
 0
VERTEX
 8
VUE_1
 10
8144.9292614792
 20
21086.4569650012
 0
VERTEX
 8
VUE_1
 10
8143.7351117020
 20
21090.5596194339
 0
VERTEX
 8
VUE_1
 10
8142.5221004182
 20
21094.6628406968
 0
VERTEX
 8
VUE_1
 10
8141.2852963481
 20
21098.7629897248
 0
VERTEX
 8
VUE_1
 10
8140.0197682116
 20
21102.8564274525
 0
VERTEX
 8
VUE_1
 10
8138.7205847290
 20
21106.9395148144
 0
VERTEX
 8
VUE_1
 10
8137.3828146204
 20
21111.0086127452
 0
VERTEX
 8
VUE_1
 10
8136.0015266058
 20
21115.0600821793
 0
VERTEX
 8
VUE_1
 10
8134.5717894055
 20
21119.0902840517
 0
VERTEX
 8
VUE_1
 10
8133.0886717394
 20
21123.0955792968
 0
VERTEX
 8
VUE_1
 10
8131.5472423278
 20
21127.0723288494
 0
VERTEX
 8
VUE_1
 10
8129.9425698907
 20
21131.0168936440
 0
VERTEX
 8
VUE_1
 10
8128.2697231483
 20
21134.9256346153
 0
VERTEX
 8
VUE_1
 10
8126.5237708207
 20
21138.7949126979
 0
VERTEX
 8
VUE_1
 10
8124.6997816280
 20
21142.6210888265
 0
VERTEX
 8
VUE_1
 10
8122.7928242903
 20
21146.4005239356
 0
VERTEX
 8
VUE_1
 10
8120.7979675278
 20
21150.1295789598
 0
VERTEX
 8
VUE_1
 10
8118.7102800605
 20
21153.8046148341
 0
VERTEX
 8
VUE_1
 10
8116.5248306086
 20
21157.4219924926
 0
VERTEX
 8
VUE_1
 10
8114.2366878922
 20
21160.9780728704
 0
SEQEND
 0
POLYLINE
 8
VUE_1
 66
1
 0
VERTEX
 8
VUE_1
 10
8114.2366878922
 20
21160.9780728704
 0
VERTEX
 8
VUE_1
 10
8112.6790616932
 20
21163.2743651888
 0
VERTEX
 8
VUE_1
 10
8111.0764580119
 20
21165.5425628205
 0
VERTEX
 8
VUE_1
 10
8109.4301495621
 20
21167.7824765978
 0
VERTEX
 8
VUE_1
 10
8107.7414090578
 20
21169.9939173528
 0
VERTEX
 8
VUE_1
 10
8106.0115092128
 20
21172.1766959179
 0
VERTEX
 8
VUE_1
 10
8104.2417227411
 20
21174.3306231251
 0
VERTEX
 8
VUE_1
 10
8102.4333223567
 20
21176.4555098068
 0
VERTEX
 8
VUE_1
 10
8100.5875807733
 20
21178.5511667952
 0
VERTEX
 8
VUE_1
 10
8098.7057707050
 20
21180.6174049225
 0
VERTEX
 8
VUE_1
 10
8096.7891648657
 20
21182.6540350210
 0
VERTEX
 8
VUE_1
 10
8094.8390359692
 20
21184.6608679228
 0
VERTEX
 8
VUE_1
 10
8092.8566567295
 20
21186.6377144604
 0
VERTEX
 8
VUE_1
 10
8090.8432998606
 20
21188.5843854658
 0
VERTEX
 8
VUE_1
 10
8088.8002380762
 20
21190.5006917712
 0
VERTEX
 8
VUE_1
 10
8086.7287440905
 20
21192.3864442092
 0
VERTEX
 8
VUE_1
 10
8084.6300906172
 20
21194.2414536116
 0
VERTEX
 8
VUE_1
 10
8082.5055503702
 20
21196.0655308108
 0
VERTEX
 8
VUE_1
 10
8080.3563960636
 20
21197.8584866390
 0
VERTEX
 8
VUE_1
 10
8078.1839004112
 20
21199.6201319284
 0
VERTEX
 8
VUE_1
 10
8075.9893361270
 20
21201.3502775115
 0
SEQEND
 0
POLYLINE
 8
VUE_1
 66
1
 0
VERTEX
 8
VUE_1
 10
8075.9893361270
 20
21201.3502775115
 0
VERTEX
 8
VUE_1
 10
8073.1401345835
 20
21203.5263141571
 0
VERTEX
 8
VUE_1
 10
8070.2580419333
 20
21205.6519810116
 0
VERTEX
 8
VUE_1
 10
8067.3444727446
 20
21207.7291833613
 0
VERTEX
 8
VUE_1
 10
8064.4008415857
 20
21209.7598264924
 0
VERTEX
 8
VUE_1
 10
8061.4285630247
 20
21211.7458156911
 0
VERTEX
 8
VUE_1
 10
8058.4290516298
 20
21213.6890562435
 0
VERTEX
 8
VUE_1
 10
8055.4037219691
 20
21215.5914534360
 0
VERTEX
 8
VUE_1
 10
8052.3539886110
 20
21217.4549125546
 0
VERTEX
 8
VUE_1
 10
8049.2812661235
 20
21219.2813388856
 0
VERTEX
 8
VUE_1
 10
8046.1869690748
 20
21221.0726377152
 0
VERTEX
 8
VUE_1
 10
8043.0725120332
 20
21222.8307143296
 0
VERTEX
 8
VUE_1
 10
8039.9393095669
 20
21224.5574740152
 0
VERTEX
 8
VUE_1
 10
8036.7887762440
 20
21226.2548220580
 0
VERTEX
 8
VUE_1
 10
8033.6223266326
 20
21227.9246637440
 0
VERTEX
 8
VUE_1
 10
8030.4413753012
 20
21229.5689043599
 0
VERTEX
 8
VUE_1
 10
8027.2473368177
 20
21231.1894491916
 0
VERTEX
 8
VUE_1
 10
8024.0416257503
 20
21232.7882035252
 0
VERTEX
 8
VUE_1
 10
8020.8256566674
 20
21234.3670726472
 0
VERTEX
 8
VUE_1
 10
8017.6008441371
 20
21235.9279618436
 0
VERTEX
 8
VUE_1
 10
8014.3686027275
 20
21237.4727764008
 0
SEQEND
 0
POLYLINE
 8
VUE_1
 66
1
 0
VERTEX
 8
VUE_1
 10
8014.3686027275
 20
21237.4727764008
 0
VERTEX
 8
VUE_1
 10
8010.7365353546
 20
21239.1877644390
 0
VERTEX
 8
VUE_1
 10
8007.0966856731
 20
21240.8840572486
 0
VERTEX
 8
VUE_1
 10
8003.4488345036
 20
21242.5607778760
 0
VERTEX
 8
VUE_1
 10
7999.7927626665
 20
21244.2170493676
 0
VERTEX
 8
VUE_1
 10
7996.1282509825
 20
21245.8519947700
 0
VERTEX
 8
VUE_1
 10
7992.4550802721
 20
21247.4647371296
 0
VERTEX
 8
VUE_1
 10
7988.7730313559
 20
21249.0543994926
 0
VERTEX
 8
VUE_1
 10
7985.0818850544
 20
21250.6201049057
 0
VERTEX
 8
VUE_1
 10
7981.3814221882
 20
21252.1609764152
 0
VERTEX
 8
VUE_1
 10
7977.6714235780
 20
21253.6761370675
 0
VERTEX
 8
VUE_1
 10
7973.9516700442
 20
21255.1647099092
 0
VERTEX
 8
VUE_1
 10
7970.2219424073
 20
21256.6258179864
 0
VERTEX
 8
VUE_1
 10
7966.4820214881
 20
21258.0585843460
 0
VERTEX
 8
VUE_1
 10
7962.7316881070
 20
21259.4621320340
 0
VERTEX
 8
VUE_1
 10
7958.9707230846
 20
21260.8355840971
 0
VERTEX
 8
VUE_1
 10
7955.1989072414
 20
21262.1780635817
 0
VERTEX
 8
VUE_1
 10
7951.4160213981
 20
21263.4886935340
 0
VERTEX
 8
VUE_1
 10
7947.6218463752
 20
21264.7665970007
 0
VERTEX
 8
VUE_1
 10
7943.8161629933
 20
21266.0108970280
 0
VERTEX
 8
VUE_1
 10
7939.9987520729
 20
21267.2207166627
 0
SEQEND
 0
POLYLINE
 8
VUE_1
 66
1
 62
2
 0
VERTEX
 8
VUE_1
 10
10143.5309945901
 20
22287.1843685657
 0
VERTEX
 8
VUE_1
 10
10838.1810724163
 20
20789.9354828704
 0
SEQEND
 0
CIRCLE
 8
VUE_1
 62
5
 10
9736.1590960521
 20
19823.1376052273
 40
130.4478356041
 0
POLYLINE
 8
VUE_1
 66
1
 62
5
 0
VERTEX
 8
VUE_1
 10
9930.0075027541
 20
20089.5777430386
 0
VERTEX
 8
VUE_1
 10
10636.4866595081
 20
20732.9784036540
 0
SEQEND
 0
POLYLINE
 8
VUE_1
 66
1
 62
5
 0
VERTEX
 8
VUE_1
 10
10274.2360897785
 20
20403.0716347932
 0
VERTEX
 8
VUE_1
 10
10274.2360897785
 20
20396.7323905207
 0
VERTEX
 8
VUE_1
 10
10458.8652970592
 20
20396.7323905207
 0
VERTEX
 8
VUE_1
 10
10458.8652970592
 20
20433.6582319768
 0
VERTEX
 8
VUE_1
 10
10307.8213729606
 20
20433.6582319768
 0
SEQEND
 0
POLYLINE
 8
VUE_1
 66
1
 62
5
 0
VERTEX
 8
VUE_1
 10
9958.7576052676
 20
20258.2114195678
 0
VERTEX
 8
VUE_1
 10
10558.2869740038
 20
20804.2113803813
 0
SEQEND
 0
POLYLINE
 8
VUE_1
 66
1
 62
5
 0
VERTEX
 8
VUE_1
 10
10078.5948131734
 20
20961.1163551118
 0
VERTEX
 8
VUE_1
 10
9846.7741296995
 20
21008.6693158244
 0
SEQEND
 0
POLYLINE
 8
VUE_1
 66
1
 62
5
 0
VERTEX
 8
VUE_1
 10
9725.9726891002
 20
20300.1086750862
 0
VERTEX
 8
VUE_1
 10
9506.4953030994
 20
20782.7164078392
 0
SEQEND
 0
POLYLINE
 8
VUE_1
 66
1
 62
5
 0
VERTEX
 8
VUE_1
 10
9399.1227420501
 20
20759.3146958157
 0
VERTEX
 8
VUE_1
 10
9693.7938638532
 20
20111.3638312984
 0
SEQEND
 0
POLYLINE
 8
VUE_1
 66
1
 62
5
 0
VERTEX
 8
VUE_1
 10
9537.8858997441
 20
20454.1890783449
 0
VERTEX
 8
VUE_1
 10
9371.9943820748
 20
20454.1890783449
 0
VERTEX
 8
VUE_1
 10
9371.9943820748
 20
20417.2632368888
 0
VERTEX
 8
VUE_1
 10
9554.6788075420
 20
20417.2632368888
 0
SEQEND
 0
POLYLINE
 8
VUE_1
 66
1
 62
2
 0
VERTEX
 8
VUE_1
 10
10980.2047237553
 20
22275.3212518502
 0
VERTEX
 8
VUE_1
 10
10841.0642653173
 20
20951.0022456457
 0
SEQEND
 0
POLYLINE
 8
VUE_1
 66
1
 62
5
 0
VERTEX
 8
VUE_1
 10
10542.3337702936
 20
22301.2214750231
 0
VERTEX
 8
VUE_1
 10
10542.3337702936
 20
21556.1839502904
 0
SEQEND
 0
POLYLINE
 8
VUE_1
 66
1
 62
5
 0
VERTEX
 8
VUE_1
 10
10520.0377308263
 20
22302.8447820051
 0
VERTEX
 8
VUE_1
 10
10520.0377308263
 20
21556.4176400764
 0
SEQEND
 0
POLYLINE
 8
VUE_1
 66
1
 62
2
 0
VERTEX
 8
VUE_1
 10
10230.0547801509
 20
22267.9721849244
 0
VERTEX
 8
VUE_1
 10
10841.0642653173
 20
20951.0022456457
 0
SEQEND
 0
POLYLINE
 8
VUE_1
 66
1
 6
CENTER
 0
VERTEX
 8
VUE_1
 10
14135.9088646630
 20
21234.1862333776
 0
VERTEX
 8
VUE_1
 10
14437.9579137951
 20
22012.9165442023
 0
SEQEND
 0
POLYLINE
 8
VUE_1
 66
1
 6
CENTER
 0
VERTEX
 8
VUE_1
 10
13695.3427359397
 20
22025.1590943800
 0
VERTEX
 8
VUE_1
 10
14135.9088646630
 20
21234.1862333776
 0
SEQEND
 0
POLYLINE
 8
VUE_1
 66
1
 6
CENTER
 0
VERTEX
 8
VUE_1
 10
13391.3021956210
 20
21142.6820367128
 0
VERTEX
 8
VUE_1
 10
13634.7746288887
 20
22026.1576035834
 0
SEQEND
 0
POLYLINE
 8
VUE_1
 66
1
 6
CENTER
 0
VERTEX
 8
VUE_1
 10
12878.8730242880
 20
22038.6191901491
 0
VERTEX
 8
VUE_1
 10
13391.3021956210
 20
21142.6820367128
 0
SEQEND
 0
POLYLINE
 8
VUE_1
 66
1
 62
2
 0
VERTEX
 8
VUE_1
 10
11042.1093077844
 20
22252.6146005812
 0
VERTEX
 8
VUE_1
 10
10905.5146971605
 20
20820.6104449418
 0
SEQEND
 0
POLYLINE
 8
VUE_1
 66
1
 0
VERTEX
 8
VUE_1
 10
10016.8470719971
 20
22516.8276218944
 0
VERTEX
 8
VUE_1
 10
10012.5289988247
 20
22516.1555083154
 0
VERTEX
 8
VUE_1
 10
10008.2190577348
 20
22515.4192882412
 0
VERTEX
 8
VUE_1
 10
10003.9184079939
 20
22514.6188419091
 0
VERTEX
 8
VUE_1
 10
9999.6282088684
 20
22513.7540495560
 0
VERTEX
 8
VUE_1
 10
9995.3496196246
 20
22512.8247914193
 0
VERTEX
 8
VUE_1
 10
9991.0837995289
 20
22511.8309477362
 0
VERTEX
 8
VUE_1
 10
9986.8319078476
 20
22510.7723987436
 0
VERTEX
 8
VUE_1
 10
9982.5951038472
 20
22509.6490246788
 0
VERTEX
 8
VUE_1
 10
9978.3745467939
 20
22508.4607057788
 0
VERTEX
 8
VUE_1
 10
9974.1713959543
 20
22507.2073222811
 0
VERTEX
 8
VUE_1
 10
9969.9868105946
 20
22505.8887544224
 0
VERTEX
 8
VUE_1
 10
9965.8219499812
 20
22504.5048824402
 0
VERTEX
 8
VUE_1
 10
9961.6779733805
 20
22503.0555865714
 0
VERTEX
 8
VUE_1
 10
9957.5560400588
 20
22501.5407470534
 0
VERTEX
 8
VUE_1
 10
9953.4573092826
 20
22499.9602441231
 0
VERTEX
 8
VUE_1
 10
9949.3829403182
 20
22498.3139580179
 0
VERTEX
 8
VUE_1
 10
9945.3340924319
 20
22496.6017689746
 0
VERTEX
 8
VUE_1
 10
9941.3119248902
 20
22494.8235572308
 0
VERTEX
 8
VUE_1
 10
9937.3175969594
 20
22492.9792030233
 0
VERTEX
 8
VUE_1
 10
9933.3522679059
 20
22491.0685865896
 0
SEQEND
 0
POLYLINE
 8
VUE_1
 66
1
 0
VERTEX
 8
VUE_1
 10
9933.3522679059
 20
22491.0685865896
 0
VERTEX
 8
VUE_1
 10
9929.3672250483
 20
22489.0661912725
 0
VERTEX
 8
VUE_1
 10
9925.4145239808
 20
22486.9968147328
 0
VERTEX
 8
VUE_1
 10
9921.4955754636
 20
22484.8615589600
 0
VERTEX
 8
VUE_1
 10
9917.6117902571
 20
22482.6615259436
 0
VERTEX
 8
VUE_1
 10
9913.7645791215
 20
22480.3978176732
 0
VERTEX
 8
VUE_1
 10
9909.9553528170
 20
22478.0715361380
 0
VERTEX
 8
VUE_1
 10
9906.1855221040
 20
22475.6837833278
 0
VERTEX
 8
VUE_1
 10
9902.4564977426
 20
22473.2356612319
 0
VERTEX
 8
VUE_1
 10
9898.7696904931
 20
22470.7282718399
 0
VERTEX
 8
VUE_1
 10
9895.1265111159
 20
22468.1627171414
 0
VERTEX
 8
VUE_1
 10
9891.5283703711
 20
22465.5400991256
 0
VERTEX
 8
VUE_1
 10
9887.9766790190
 20
22462.8615197822
 0
VERTEX
 8
VUE_1
 10
9884.4728478199
 20
22460.1280811006
 0
VERTEX
 8
VUE_1
 10
9881.0182875341
 20
22457.3408850706
 0
VERTEX
 8
VUE_1
 10
9877.6144089217
 20
22454.5010336812
 0
VERTEX
 8
VUE_1
 10
9874.2626227432
 20
22451.6096289224
 0
VERTEX
 8
VUE_1
 10
9870.9643397586
 20
22448.6677727833
 0
VERTEX
 8
VUE_1
 10
9867.7209707284
 20
22445.6765672535
 0
VERTEX
 8
VUE_1
 10
9864.5339264127
 20
22442.6371143225
 0
VERTEX
 8
VUE_1
 10
9861.4046175719
 20
22439.5505159800
 0
SEQEND
 0
POLYLINE
 8
VUE_1
 66
1
 0
VERTEX
 8
VUE_1
 10
9861.4046175719
 20
22439.5505159800
 0
VERTEX
 8
VUE_1
 10
9859.2351979903
 20
22437.3486161760
 0
VERTEX
 8
VUE_1
 10
9857.0928369239
 20
22435.1248477338
 0
VERTEX
 8
VUE_1
 10
9854.9752432450
 20
22432.8801897580
 0
VERTEX
 8
VUE_1
 10
9852.8801258257
 20
22430.6156213538
 0
VERTEX
 8
VUE_1
 10
9850.8051935383
 20
22428.3321216264
 0
VERTEX
 8
VUE_1
 10
9848.7481552548
 20
22426.0306696808
 0
VERTEX
 8
VUE_1
 10
9846.7067198475
 20
22423.7122446219
 0
VERTEX
 8
VUE_1
 10
9844.6785961885
 20
22421.3778255548
 0
VERTEX
 8
VUE_1
 10
9842.6614931500
 20
22419.0283915848
 0
VERTEX
 8
VUE_1
 10
9840.6531196042
 20
22416.6649218167
 0
VERTEX
 8
VUE_1
 10
9838.6511844233
 20
22414.2883953556
 0
VERTEX
 8
VUE_1
 10
9836.6533964794
 20
22411.8997913064
 0
VERTEX
 8
VUE_1
 10
9834.6574646448
 20
22409.5000887745
 0
VERTEX
 8
VUE_1
 10
9832.6610977915
 20
22407.0902668648
 0
VERTEX
 8
VUE_1
 10
9830.6620047918
 20
22404.6713046822
 0
VERTEX
 8
VUE_1
 10
9828.6578945178
 20
22402.2441813318
 0
VERTEX
 8
VUE_1
 10
9826.6464758418
 20
22399.8098759189
 0
VERTEX
 8
VUE_1
 10
9824.6254576358
 20
22397.3693675481
 0
VERTEX
 8
VUE_1
 10
9822.5925487722
 20
22394.9236353250
 0
VERTEX
 8
VUE_1
 10
9820.5454581230
 20
22392.4736583541
 0
SEQEND
 0
POLYLINE
 8
VUE_1
 66
1
 0
VERTEX
 8
VUE_1
 10
9820.5454581230
 20
22392.4736583541
 0
VERTEX
 8
VUE_1
 10
9818.7829147999
 20
22390.3746496960
 0
VERTEX
 8
VUE_1
 10
9817.0165079175
 20
22388.2704284635
 0
VERTEX
 8
VUE_1
 10
9815.2544284099
 20
22386.1581718036
 0
VERTEX
 8
VUE_1
 10
9813.5048672111
 20
22384.0350568627
 0
VERTEX
 8
VUE_1
 10
9811.7760152552
 20
22381.8982607879
 0
VERTEX
 8
VUE_1
 10
9810.0760634762
 20
22379.7449607256
 0
VERTEX
 8
VUE_1
 10
9808.4132028082
 20
22377.5723338226
 0
VERTEX
 8
VUE_1
 10
9806.7956241853
 20
22375.3775572255
 0
VERTEX
 8
VUE_1
 10
9805.2315185414
 20
22373.1578080811
 0
VERTEX
 8
VUE_1
 10
9803.7290768108
 20
22370.9102635361
 0
VERTEX
 8
VUE_1
 10
9802.2964899273
 20
22368.6321007371
 0
VERTEX
 8
VUE_1
 10
9800.9419488252
 20
22366.3204968308
 0
VERTEX
 8
VUE_1
 10
9799.6736444384
 20
22363.9726289641
 0
VERTEX
 8
VUE_1
 10
9798.4997677010
 20
22361.5856742836
 0
VERTEX
 8
VUE_1
 10
9797.4285095471
 20
22359.1568099359
 0
VERTEX
 8
VUE_1
 10
9796.4680609107
 20
22356.6832130678
 0
VERTEX
 8
VUE_1
 10
9795.6266127259
 20
22354.1620608259
 0
VERTEX
 8
VUE_1
 10
9794.9123559267
 20
22351.5905303571
 0
VERTEX
 8
VUE_1
 10
9794.3334814472
 20
22348.9657988077
 0
VERTEX
 8
VUE_1
 10
9793.8981802215
 20
22346.2850433249
 0
SEQEND
 0
POLYLINE
 8
VUE_1
 66
1
 0
VERTEX
 8
VUE_1
 10
9793.8981802215
 20
22346.2850433249
 0
VERTEX
 8
VUE_1
 10
9793.7295038279
 20
22344.8522254390
 0
VERTEX
 8
VUE_1
 10
9793.6033569739
 20
22343.4062966855
 0
VERTEX
 8
VUE_1
 10
9793.5202855990
 20
22341.9504253995
 0
VERTEX
 8
VUE_1
 10
9793.4808356425
 20
22340.4877799164
 0
VERTEX
 8
VUE_1
 10
9793.4855530438
 20
22339.0215285710
 0
VERTEX
 8
VUE_1
 10
9793.5349837425
 20
22337.5548396986
 0
VERTEX
 8
VUE_1
 10
9793.6296736778
 20
22336.0908816344
 0
VERTEX
 8
VUE_1
 10
9793.7701687891
 20
22334.6328227133
 0
VERTEX
 8
VUE_1
 10
9793.9570150159
 20
22333.1838312708
 0
VERTEX
 8
VUE_1
 10
9794.1907582976
 20
22331.7470756416
 0
VERTEX
 8
VUE_1
 10
9794.4719445736
 20
22330.3257241614
 0
VERTEX
 8
VUE_1
 10
9794.8011197833
 20
22328.9229451648
 0
VERTEX
 8
VUE_1
 10
9795.1788298661
 20
22327.5419069872
 0
VERTEX
 8
VUE_1
 10
9795.6056207613
 20
22326.1857779636
 0
VERTEX
 8
VUE_1
 10
9796.0820384084
 20
22324.8577264295
 0
VERTEX
 8
VUE_1
 10
9796.6086287469
 20
22323.5609207196
 0
VERTEX
 8
VUE_1
 10
9797.1859377161
 20
22322.2985291692
 0
VERTEX
 8
VUE_1
 10
9797.8145112553
 20
22321.0737201136
 0
VERTEX
 8
VUE_1
 10
9798.4948953041
 20
22319.8896618876
 0
VERTEX
 8
VUE_1
 10
9799.2276358018
 20
22318.7495228268
 0
SEQEND
 0
POLYLINE
 8
VUE_1
 66
1
 0
VERTEX
 8
VUE_1
 10
9799.2276358018
 20
22318.7495228268
 0
VERTEX
 8
VUE_1
 10
9800.1912751478
 20
22317.4230467172
 0
VERTEX
 8
VUE_1
 10
9801.2304430258
 20
22316.1644098866
 0
VERTEX
 8
VUE_1
 10
9802.3421368393
 20
22314.9715524159
 0
VERTEX
 8
VUE_1
 10
9803.5233539924
 20
22313.8424143863
 0
VERTEX
 8
VUE_1
 10
9804.7710918886
 20
22312.7749358788
 0
VERTEX
 8
VUE_1
 10
9806.0823479319
 20
22311.7670569746
 0
VERTEX
 8
VUE_1
 10
9807.4541195259
 20
22310.8167177548
 0
VERTEX
 8
VUE_1
 10
9808.8834040745
 20
22309.9218583006
 0
VERTEX
 8
VUE_1
 10
9810.3671989815
 20
22309.0804186929
 0
VERTEX
 8
VUE_1
 10
9811.9025016506
 20
22308.2903390130
 0
VERTEX
 8
VUE_1
 10
9813.4863094856
 20
22307.5495593419
 0
VERTEX
 8
VUE_1
 10
9815.1156198903
 20
22306.8560197609
 0
VERTEX
 8
VUE_1
 10
9816.7874302684
 20
22306.2076603509
 0
VERTEX
 8
VUE_1
 10
9818.4987380238
 20
22305.6024211932
 0
VERTEX
 8
VUE_1
 10
9820.2465405602
 20
22305.0382423688
 0
VERTEX
 8
VUE_1
 10
9822.0278352815
 20
22304.5130639589
 0
VERTEX
 8
VUE_1
 10
9823.8396195913
 20
22304.0248260445
 0
VERTEX
 8
VUE_1
 10
9825.6788908935
 20
22303.5714687068
 0
VERTEX
 8
VUE_1
 10
9827.5426465918
 20
22303.1509320268
 0
VERTEX
 8
VUE_1
 10
9829.4278840901
 20
22302.7611560859
 0
SEQEND
 0
POLYLINE
 8
VUE_1
 66
1
 0
VERTEX
 8
VUE_1
 10
9829.4278840901
 20
22302.7611560859
 0
VERTEX
 8
VUE_1
 10
9830.1679007526
 20
22302.6173473037
 0
VERTEX
 8
VUE_1
 10
9830.9092151230
 20
22302.4794410312
 0
VERTEX
 8
VUE_1
 10
9831.6503155708
 20
22302.3489764780
 0
VERTEX
 8
VUE_1
 10
9832.3896904654
 20
22302.2274928536
 0
VERTEX
 8
VUE_1
 10
9833.1258281763
 20
22302.1165293672
 0
VERTEX
 8
VUE_1
 10
9833.8572170730
 20
22302.0176252286
 0
VERTEX
 8
VUE_1
 10
9834.5823455249
 20
22301.9323196472
 0
VERTEX
 8
VUE_1
 10
9835.2997019016
 20
22301.8621518321
 0
VERTEX
 8
VUE_1
 10
9836.0077745725
 20
22301.8086609932
 0
VERTEX
 8
VUE_1
 10
9836.7050519071
 20
22301.7733863396
 0
VERTEX
 8
VUE_1
 10
9837.3900222748
 20
22301.7578670809
 0
VERTEX
 8
VUE_1
 10
9838.0611740452
 20
22301.7636424268
 0
VERTEX
 8
VUE_1
 10
9838.7169955878
 20
22301.7922515864
 0
VERTEX
 8
VUE_1
 10
9839.3559752719
 20
22301.8452337693
 0
VERTEX
 8
VUE_1
 10
9839.9766014671
 20
22301.9241281850
 0
VERTEX
 8
VUE_1
 10
9840.5773625428
 20
22302.0304740430
 0
VERTEX
 8
VUE_1
 10
9841.1567468686
 20
22302.1658105524
 0
VERTEX
 8
VUE_1
 10
9841.7132428139
 20
22302.3316769232
 0
VERTEX
 8
VUE_1
 10
9842.2453387481
 20
22302.5296123644
 0
VERTEX
 8
VUE_1
 10
9842.7515230409
 20
22302.7611560859
 0
SEQEND
 0
POLYLINE
 8
VUE_1
 66
1
 0
VERTEX
 8
VUE_1
 10
9842.7515230409
 20
22302.7611560859
 0
VERTEX
 8
VUE_1
 10
9843.6009066520
 20
22303.2691393875
 0
VERTEX
 8
VUE_1
 10
9844.3655528800
 20
22303.8859304300
 0
VERTEX
 8
VUE_1
 10
9845.0509164367
 20
22304.6047407668
 0
VERTEX
 8
VUE_1
 10
9845.6624520336
 20
22305.4187819510
 0
VERTEX
 8
VUE_1
 10
9846.2056143826
 20
22306.3212655360
 0
VERTEX
 8
VUE_1
 10
9846.6858581953
 20
22307.3054030748
 0
VERTEX
 8
VUE_1
 10
9847.1086381833
 20
22308.3644061209
 0
VERTEX
 8
VUE_1
 10
9847.4794090585
 20
22309.4914862274
 0
VERTEX
 8
VUE_1
 10
9847.8036255326
 20
22310.6798549476
 0
VERTEX
 8
VUE_1
 10
9848.0867423171
 20
22311.9227238347
 0
VERTEX
 8
VUE_1
 10
9848.3342141238
 20
22313.2133044420
 0
VERTEX
 8
VUE_1
 10
9848.5514956645
 20
22314.5448083226
 0
VERTEX
 8
VUE_1
 10
9848.7440416507
 20
22315.9104470300
 0
VERTEX
 8
VUE_1
 10
9848.9173067943
 20
22317.3034321172
 0
VERTEX
 8
VUE_1
 10
9849.0767458069
 20
22318.7169751376
 0
VERTEX
 8
VUE_1
 10
9849.2278134002
 20
22320.1442876444
 0
VERTEX
 8
VUE_1
 10
9849.3759642859
 20
22321.5785811909
 0
VERTEX
 8
VUE_1
 10
9849.5266531758
 20
22323.0130673302
 0
VERTEX
 8
VUE_1
 10
9849.6853347814
 20
22324.4409576157
 0
VERTEX
 8
VUE_1
 10
9849.8574638146
 20
22325.8554636004
 0
SEQEND
 0
POLYLINE
 8
VUE_1
 66
1
 0
VERTEX
 8
VUE_1
 10
9849.8574638146
 20
22325.8554636004
 0
VERTEX
 8
VUE_1
 10
9850.3195926192
 20
22329.0195485168
 0
VERTEX
 8
VUE_1
 10
9850.8762871964
 20
22332.0836004129
 0
VERTEX
 8
VUE_1
 10
9851.5231580653
 20
22335.0531933268
 0
VERTEX
 8
VUE_1
 10
9852.2558157455
 20
22337.9339012967
 0
VERTEX
 8
VUE_1
 10
9853.0698707561
 20
22340.7312983608
 0
VERTEX
 8
VUE_1
 10
9853.9609336167
 20
22343.4509585574
 0
VERTEX
 8
VUE_1
 10
9854.9246148464
 20
22346.0984559247
 0
VERTEX
 8
VUE_1
 10
9855.9565249648
 20
22348.6793645008
 0
VERTEX
 8
VUE_1
 10
9857.0522744910
 20
22351.1992583241
 0
VERTEX
 8
VUE_1
 10
9858.2074739444
 20
22353.6637114324
 0
VERTEX
 8
VUE_1
 10
9859.4177338444
 20
22356.0782978644
 0
VERTEX
 8
VUE_1
 10
9860.6786647104
 20
22358.4485916582
 0
VERTEX
 8
VUE_1
 10
9861.9858770616
 20
22360.7801668518
 0
VERTEX
 8
VUE_1
 10
9863.3349814174
 20
22363.0785974835
 0
VERTEX
 8
VUE_1
 10
9864.7215882972
 20
22365.3494575914
 0
VERTEX
 8
VUE_1
 10
9866.1413082203
 20
22367.5983212140
 0
VERTEX
 8
VUE_1
 10
9867.5897517060
 20
22369.8307623892
 0
VERTEX
 8
VUE_1
 10
9869.0625292737
 20
22372.0523551553
 0
VERTEX
 8
VUE_1
 10
9870.5552514428
 20
22374.2686735505
 0
VERTEX
 8
VUE_1
 10
9872.0635287325
 20
22376.4852916132
 0
SEQEND
 0
POLYLINE
 8
VUE_1
 66
1
 0
VERTEX
 8
VUE_1
 10
9872.0635287325
 20
22376.4852916132
 0
VERTEX
 8
VUE_1
 10
9874.2413533932
 20
22379.6640853270
 0
VERTEX
 8
VUE_1
 10
9876.4427390157
 20
22382.8521264784
 0
VERTEX
 8
VUE_1
 10
9878.6684051321
 20
22386.0466467293
 0
VERTEX
 8
VUE_1
 10
9880.9190712749
 20
22389.2448777413
 0
VERTEX
 8
VUE_1
 10
9883.1954569764
 20
22392.4440511760
 0
VERTEX
 8
VUE_1
 10
9885.4982817691
 20
22395.6413986953
 0
VERTEX
 8
VUE_1
 10
9887.8282651852
 20
22398.8341519608
 0
VERTEX
 8
VUE_1
 10
9890.1861267570
 20
22402.0195426343
 0
VERTEX
 8
VUE_1
 10
9892.5725860171
 20
22405.1948023771
 0
VERTEX
 8
VUE_1
 10
9894.9883624977
 20
22408.3571628514
 0
VERTEX
 8
VUE_1
 10
9897.4341757312
 20
22411.5038557184
 0
VERTEX
 8
VUE_1
 10
9899.9107452499
 20
22414.6321126403
 0
VERTEX
 8
VUE_1
 10
9902.4187905863
 20
22417.7391652783
 0
VERTEX
 8
VUE_1
 10
9904.9590312726
 20
22420.8222452944
 0
VERTEX
 8
VUE_1
 10
9907.5321868412
 20
22423.8785843502
 0
VERTEX
 8
VUE_1
 10
9910.1389768245
 20
22426.9054141072
 0
VERTEX
 8
VUE_1
 10
9912.7801207549
 20
22429.8999662274
 0
VERTEX
 8
VUE_1
 10
9915.4563381647
 20
22432.8594723724
 0
VERTEX
 8
VUE_1
 10
9918.1683485862
 20
22435.7811642039
 0
VERTEX
 8
VUE_1
 10
9920.9168715518
 20
22438.6622733834
 0
SEQEND
 0
POLYLINE
 8
VUE_1
 66
1
 0
VERTEX
 8
VUE_1
 10
9920.9168715518
 20
22438.6622733834
 0
VERTEX
 8
VUE_1
 10
9924.2833279662
 20
22442.0828995988
 0
VERTEX
 8
VUE_1
 10
9927.7017511064
 20
22445.4427027759
 0
VERTEX
 8
VUE_1
 10
9931.1698686673
 20
22448.7440128331
 0
VERTEX
 8
VUE_1
 10
9934.6854083434
 20
22451.9891596886
 0
VERTEX
 8
VUE_1
 10
9938.2460978295
 20
22455.1804732612
 0
VERTEX
 8
VUE_1
 10
9941.8496648201
 20
22458.3202834688
 0
VERTEX
 8
VUE_1
 10
9945.4938370099
 20
22461.4109202300
 0
VERTEX
 8
VUE_1
 10
9949.1763420936
 20
22464.4547134632
 0
VERTEX
 8
VUE_1
 10
9952.8949077659
 20
22467.4539930868
 0
VERTEX
 8
VUE_1
 10
9956.6472617214
 20
22470.4110890189
 0
VERTEX
 8
VUE_1
 10
9960.4311316547
 20
22473.3283311783
 0
VERTEX
 8
VUE_1
 10
9964.2442452605
 20
22476.2080494830
 0
VERTEX
 8
VUE_1
 10
9968.0843302335
 20
22479.0525738516
 0
VERTEX
 8
VUE_1
 10
9971.9491142683
 20
22481.8642342025
 0
VERTEX
 8
VUE_1
 10
9975.8363250595
 20
22484.6453604540
 0
VERTEX
 8
VUE_1
 10
9979.7436903019
 20
22487.3982825243
 0
VERTEX
 8
VUE_1
 10
9983.6689376901
 20
22490.1253303322
 0
VERTEX
 8
VUE_1
 10
9987.6097949188
 20
22492.8288337956
 0
VERTEX
 8
VUE_1
 10
9991.5639896825
 20
22495.5111228332
 0
VERTEX
 8
VUE_1
 10
9995.5292496760
 20
22498.1745273632
 0
SEQEND
 0
POLYLINE
 8
VUE_1
 66
1
 0
VERTEX
 8
VUE_1
 10
9995.5292496760
 20
22498.1745273632
 0
VERTEX
 8
VUE_1
 10
9996.7595774543
 20
22498.9961371988
 0
VERTEX
 8
VUE_1
 10
9997.9908272304
 20
22499.8160515147
 0
VERTEX
 8
VUE_1
 10
9999.2230771249
 20
22500.6341635729
 0
VERTEX
 8
VUE_1
 10
10000.4564052584
 20
22501.4503666357
 0
VERTEX
 8
VUE_1
 10
10001.6908897517
 20
22502.2645539652
 0
VERTEX
 8
VUE_1
 10
10002.9266087254
 20
22503.0766188232
 0
VERTEX
 8
VUE_1
 10
10004.1636403003
 20
22503.8864544720
 0
VERTEX
 8
VUE_1
 10
10005.4020625969
 20
22504.6939541736
 0
VERTEX
 8
VUE_1
 10
10006.6419537360
 20
22505.4990111900
 0
VERTEX
 8
VUE_1
 10
10007.8833918382
 20
22506.3015187833
 0
VERTEX
 8
VUE_1
 10
10009.1264550243
 20
22507.1013702158
 0
VERTEX
 8
VUE_1
 10
10010.3712214149
 20
22507.8984587492
 0
VERTEX
 8
VUE_1
 10
10011.6177691307
 20
22508.6926776459
 0
VERTEX
 8
VUE_1
 10
10012.8661762924
 20
22509.4839201676
 0
VERTEX
 8
VUE_1
 10
10014.1165210206
 20
22510.2720795768
 0
VERTEX
 8
VUE_1
 10
10015.3688814361
 20
22511.0570491352
 0
VERTEX
 8
VUE_1
 10
10016.6233356595
 20
22511.8387221052
 0
VERTEX
 8
VUE_1
 10
10017.8799618115
 20
22512.6169917486
 0
VERTEX
 8
VUE_1
 10
10019.1388380128
 20
22513.3917513276
 0
VERTEX
 8
VUE_1
 10
10020.4000423840
 20
22514.1628941041
 0
SEQEND
 0
POLYLINE
 8
VUE_1
 66
1
 0
VERTEX
 8
VUE_1
 10
7834.5251668333
 20
22597.7206846015
 0
VERTEX
 8
VUE_1
 10
7859.3041978889
 20
22513.9846486204
 0
VERTEX
 8
VUE_1
 10
7880.6654315576
 20
22367.8738103266
 0
VERTEX
 8
VUE_1
 10
7892.6277224120
 20
22118.3746010768
 0
VERTEX
 8
VUE_1
 10
7896.8999691458
 20
21571.5270191591
 0
VERTEX
 8
VUE_1
 10
7901.1722158795
 20
21296.3943295067
 0
SEQEND
 0
POLYLINE
 8
VUE_1
 66
1
 0
VERTEX
 8
VUE_1
 10
7834.5251668333
 20
22597.7206846015
 0
VERTEX
 8
VUE_1
 10
7801.2016423102
 20
22522.5291420877
 0
VERTEX
 8
VUE_1
 10
7784.1126553752
 20
22414.0140750509
 0
VERTEX
 8
VUE_1
 10
7780.6948579883
 20
22238.8519589680
 0
VERTEX
 8
VUE_1
 10
7767.8781177871
 20
21721.9101041864
 0
VERTEX
 8
VUE_1
 10
7763.7277988823
 20
21296.0873845555
 0
SEQEND
 0
POLYLINE
 8
VUE_1
 66
1
 0
VERTEX
 8
VUE_1
 10
7765.0371017531
 20
21430.4218590988
 0
VERTEX
 8
VUE_1
 10
7673.8886896450
 20
21335.6989994571
 0
VERTEX
 8
VUE_1
 10
7632.0206716544
 20
21333.1356514168
 0
VERTEX
 8
VUE_1
 10
7632.7482483279
 20
21295.3016643962
 0
SEQEND
 0
POLYLINE
 8
VUE_1
 66
1
 0
VERTEX
 8
VUE_1
 10
7632.0206716544
 20
21333.1356514168
 0
VERTEX
 8
VUE_1
 10
7621.1911528751
 20
21295.2323356892
 0
SEQEND
 0
POLYLINE
 8
VUE_1
 66
1
 0
VERTEX
 8
VUE_1
 10
7673.8886896450
 20
21335.6989994571
 0
VERTEX
 8
VUE_1
 10
7673.8886896450
 20
21295.5484576855
 0
SEQEND
 0
POLYLINE
 8
VUE_1
 66
1
 0
VERTEX
 8
VUE_1
 10
7765.0371017531
 20
21159.2914340940
 0
VERTEX
 8
VUE_1
 10
7673.8886896450
 20
21254.0142937357
 0
VERTEX
 8
VUE_1
 10
7632.0206716544
 20
21256.5776417761
 0
VERTEX
 8
VUE_1
 10
7632.7482483279
 20
21294.4116287967
 0
SEQEND
 0
POLYLINE
 8
VUE_1
 66
1
 0
VERTEX
 8
VUE_1
 10
7632.0206716544
 20
21256.5776417761
 0
VERTEX
 8
VUE_1
 10
7621.1911528751
 20
21294.4809575036
 0
SEQEND
 0
POLYLINE
 8
VUE_1
 66
1
 0
VERTEX
 8
VUE_1
 10
7673.8886896450
 20
21254.0142937357
 0
VERTEX
 8
VUE_1
 10
7673.8886896450
 20
21294.1648355073
 0
SEQEND
 0
POLYLINE
 8
VUE_1
 66
1
 0
VERTEX
 8
VUE_1
 10
7834.5251668333
 20
19991.9926085914
 0
VERTEX
 8
VUE_1
 10
7801.2016423102
 20
20067.1841511050
 0
VERTEX
 8
VUE_1
 10
7784.1126553752
 20
20175.6992181419
 0
VERTEX
 8
VUE_1
 10
7780.6948579883
 20
20350.8613342249
 0
VERTEX
 8
VUE_1
 10
7767.8781177871
 20
20867.8031890064
 0
VERTEX
 8
VUE_1
 10
7763.7277988823
 20
21293.6259086374
 0
SEQEND
 0
POLYLINE
 8
VUE_1
 66
1
 0
VERTEX
 8
VUE_1
 10
7834.5251668333
 20
19991.9926085914
 0
VERTEX
 8
VUE_1
 10
7859.3041978889
 20
20075.7286445724
 0
VERTEX
 8
VUE_1
 10
7880.6654315576
 20
20221.8394828661
 0
VERTEX
 8
VUE_1
 10
7892.6277224120
 20
20471.3386921160
 0
VERTEX
 8
VUE_1
 10
7896.8999691458
 20
21018.1862740338
 0
VERTEX
 8
VUE_1
 10
7901.1722158795
 20
21293.3189636862
 0
SEQEND
 0
POLYLINE
 8
VUE_1
 66
1
 0
VERTEX
 8
VUE_1
 10
15872.3456339247
 20
21540.5668623193
 0
VERTEX
 8
VUE_1
 10
16097.9430163065
 20
21893.3191329526
 0
SEQEND
 0
POLYLINE
 8
VUE_1
 66
1
 0
VERTEX
 8
VUE_1
 10
16163.5713457267
 20
21889.2173623638
 0
VERTEX
 8
VUE_1
 10
16331.7439398658
 20
21597.9916505619
 0
SEQEND
 0
POLYLINE
 8
VUE_1
 66
1
 0
VERTEX
 8
VUE_1
 10
15855.9385515697
 20
21520.0580093755
 0
VERTEX
 8
VUE_1
 10
15786.2084515608
 20
21897.4209035413
 0
SEQEND
 0
POLYLINE
 8
VUE_1
 66
1
 0
VERTEX
 8
VUE_1
 10
17203.9950977213
 20
22086.1309106141
 0
VERTEX
 8
VUE_1
 10
16520.4253869487
 20
22082.0005800355
 0
SEQEND
 0
POLYLINE
 8
VUE_1
 66
1
 0
VERTEX
 8
VUE_1
 10
16914.1953634696
 20
21954.8456917840
 0
VERTEX
 8
VUE_1
 10
15429.3544103387
 20
21946.6421506065
 0
SEQEND
 0
POINT
 8
VUE_1
 10
15925.1297578696
 20
21949.3812409243
 0
POINT
 8
VUE_1
 10
15470.3721162263
 20
21946.8687677660
 0
POLYLINE
 8
VUE_1
 66
1
 0
VERTEX
 8
VUE_1
 10
15880.5491751022
 20
21766.1642447010
 0
VERTEX
 8
VUE_1
 10
15983.1534790366
 20
21288.6595994681
 0
SEQEND
 0
POLYLINE
 8
VUE_1
 66
1
 0
VERTEX
 8
VUE_1
 10
15847.7350103922
 20
21753.8589329348
 0
VERTEX
 8
VUE_1
 10
15954.3810456999
 20
21257.5446916948
 0
SEQEND
 0
POLYLINE
 8
VUE_1
 66
1
 62
5
 0
VERTEX
 8
VUE_1
 10
9751.4205892941
 20
20449.3732896252
 0
VERTEX
 8
VUE_1
 10
9984.4565746372
 20
20408.9486799229
 0
SEQEND
 0
POLYLINE
 8
VUE_1
 66
1
 62
5
 0
VERTEX
 8
VUE_1
 10
9690.0090909602
 20
20089.1642524452
 0
VERTEX
 8
VUE_1
 10
9846.7741296995
 20
21008.6693158244
 0
SEQEND
 0
POLYLINE
 8
VUE_1
 66
1
 62
5
 0
VERTEX
 8
VUE_1
 10
9918.5272341802
 20
20022.2402475899
 0
VERTEX
 8
VUE_1
 10
10078.5948131734
 20
20961.1163551118
 0
SEQEND
 0
POLYLINE
 8
VUE_1
 66
1
 0
VERTEX
 8
VUE_1
 10
7834.5251668333
 20
22597.7206846015
 0
VERTEX
 8
VUE_1
 10
7834.5251668333
 20
19991.9926085914
 0
SEQEND
 0
POINT
 8
VUE_1
 10
7834.5251668333
 20
19991.9926085914
 0
POINT
 8
VUE_1
 10
7834.5251668333
 20
19991.9926085914
 0
POLYLINE
 8
VUE_1
 66
1
 0
VERTEX
 8
VUE_1
 10
15269.2734541432
 20
9222.4737032410
 0
VERTEX
 8
VUE_1
 10
17576.3198110769
 20
9025.4531511761
 0
SEQEND
 0
POLYLINE
 8
VUE_1
 66
1
 0
VERTEX
 8
VUE_1
 10
17200.9078882774
 20
9015.2458670375
 0
VERTEX
 8
VUE_1
 10
7637.4678232680
 20
9015.5664756156
 0
SEQEND
 0
POLYLINE
 8
VUE_1
 66
1
 0
VERTEX
 8
VUE_1
 10
15692.7523768702
 20
9004.2149077977
 0
VERTEX
 8
VUE_1
 10
15692.8113088295
 20
9002.9675732427
 0
VERTEX
 8
VUE_1
 10
15692.9779022680
 20
9001.7505878267
 0
VERTEX
 8
VUE_1
 10
15693.2465175271
 20
9000.5630868594
 0
VERTEX
 8
VUE_1
 10
15693.6115149485
 20
8999.4042056503
 0
VERTEX
 8
VUE_1
 10
15694.0672548736
 20
8998.2730795092
 0
VERTEX
 8
VUE_1
 10
15694.6080976440
 20
8997.1688437457
 0
VERTEX
 8
VUE_1
 10
15695.2284036014
 20
8996.0906336696
 0
VERTEX
 8
VUE_1
 10
15695.9225330871
 20
8995.0375845905
 0
VERTEX
 8
VUE_1
 10
15696.6848464429
 20
8994.0088318181
 0
VERTEX
 8
VUE_1
 10
15697.5097040103
 20
8993.0035106620
 0
VERTEX
 8
VUE_1
 10
15698.3914661308
 20
8992.0207564319
 0
VERTEX
 8
VUE_1
 10
15699.3244931460
 20
8991.0597044376
 0
VERTEX
 8
VUE_1
 10
15700.3031453975
 20
8990.1194899886
 0
VERTEX
 8
VUE_1
 10
15701.3217832267
 20
8989.1992483947
 0
VERTEX
 8
VUE_1
 10
15702.3747669754
 20
8988.2981149655
 0
VERTEX
 8
VUE_1
 10
15703.4564569849
 20
8987.4152250108
 0
VERTEX
 8
VUE_1
 10
15704.5612135970
 20
8986.5497138401
 0
VERTEX
 8
VUE_1
 10
15705.6833971531
 20
8985.7007167631
 0
VERTEX
 8
VUE_1
 10
15706.8173679948
 20
8984.8673690896
 0
VERTEX
 8
VUE_1
 10
15707.9574864637
 20
8984.0488061292
 0
VERTEX
 8
VUE_1
 10
15707.9574864637
 20
8984.0488061292
 0
VERTEX
 8
VUE_1
 10
15711.5420489459
 20
8981.5697962585
 0
VERTEX
 8
VUE_1
 10
15715.1321244279
 20
8979.2229426539
 0
VERTEX
 8
VUE_1
 10
15718.7282224177
 20
8977.0032893574
 0
VERTEX
 8
VUE_1
 10
15722.3308524230
 20
8974.9058804108
 0
VERTEX
 8
VUE_1
 10
15725.9405239517
 20
8972.9257598559
 0
VERTEX
 8
VUE_1
 10
15729.5577465118
 20
8971.0579717344
 0
VERTEX
 8
VUE_1
 10
15733.1830296109
 20
8969.2975600883
 0
VERTEX
 8
VUE_1
 10
15736.8168827571
 20
8967.6395689594
 0
VERTEX
 8
VUE_1
 10
15740.4598154581
 20
8966.0790423894
 0
VERTEX
 8
VUE_1
 10
15744.1123372218
 20
8964.6110244202
 0
VERTEX
 8
VUE_1
 10
15747.7749575561
 20
8963.2305590937
 0
VERTEX
 8
VUE_1
 10
15751.4481859688
 20
8961.9326904516
 0
VERTEX
 8
VUE_1
 10
15755.1325319677
 20
8960.7124625358
 0
VERTEX
 8
VUE_1
 10
15758.8285050608
 20
8959.5649193881
 0
VERTEX
 8
VUE_1
 10
15762.5366147558
 20
8958.4851050503
 0
VERTEX
 8
VUE_1
 10
15766.2573705607
 20
8957.4680635642
 0
VERTEX
 8
VUE_1
 10
15769.9912819833
 20
8956.5088389717
 0
VERTEX
 8
VUE_1
 10
15773.7388585315
 20
8955.6024753147
 0
VERTEX
 8
VUE_1
 10
15777.5006097130
 20
8954.7440166348
 0
VERTEX
 8
VUE_1
 10
15781.2770450358
 20
8953.9285069740
 0
VERTEX
 8
VUE_1
 10
15781.2770450358
 20
8953.9285069740
 0
VERTEX
 8
VUE_1
 10
15787.8377439863
 20
8952.6093908595
 0
VERTEX
 8
VUE_1
 10
15794.4412372566
 20
8951.3981115253
 0
VERTEX
 8
VUE_1
 10
15801.0849541693
 20
8950.2890665717
 0
VERTEX
 8
VUE_1
 10
15807.7663240470
 20
8949.2766535993
 0
VERTEX
 8
VUE_1
 10
15814.4827762125
 20
8948.3552702084
 0
VERTEX
 8
VUE_1
 10
15821.2317399885
 20
8947.5193139997
 0
VERTEX
 8
VUE_1
 10
15828.0106446977
 20
8946.7631825735
 0
VERTEX
 8
VUE_1
 10
15834.8169196628
 20
8946.0812735304
 0
VERTEX
 8
VUE_1
 10
15841.6479942064
 20
8945.4679844709
 0
VERTEX
 8
VUE_1
 10
15848.5012976513
 20
8944.9177129954
 0
VERTEX
 8
VUE_1
 10
15855.3742593202
 20
8944.4248567043
 0
VERTEX
 8
VUE_1
 10
15862.2643085357
 20
8943.9838131983
 0
VERTEX
 8
VUE_1
 10
15869.1688746206
 20
8943.5889800777
 0
VERTEX
 8
VUE_1
 10
15876.0853868976
 20
8943.2347549430
 0
VERTEX
 8
VUE_1
 10
15883.0112746893
 20
8942.9155353948
 0
VERTEX
 8
VUE_1
 10
15889.9439673184
 20
8942.6257190334
 0
VERTEX
 8
VUE_1
 10
15896.8808941078
 20
8942.3597034595
 0
VERTEX
 8
VUE_1
 10
15903.8194843799
 20
8942.1118862734
 0
VERTEX
 8
VUE_1
 10
15910.7571674576
 20
8941.8766650756
 0
VERTEX
 8
VUE_1
 10
15917.6913726635
 20
8941.6484374667
 0
VERTEX
 8
VUE_1
 10
15917.6913726635
 20
8941.6484374667
 0
VERTEX
 8
VUE_1
 10
15933.2720518225
 20
8941.1426918715
 0
VERTEX
 8
VUE_1
 10
15948.8238708859
 20
8940.6473810064
 0
VERTEX
 8
VUE_1
 10
15964.3485888667
 20
8940.1658970899
 0
VERTEX
 8
VUE_1
 10
15979.8479647778
 20
8939.7016323407
 0
VERTEX
 8
VUE_1
 10
15995.3237576324
 20
8939.2579789774
 0
VERTEX
 8
VUE_1
 10
16010.7777264434
 20
8938.8383292184
 0
VERTEX
 8
VUE_1
 10
16026.2116302239
 20
8938.4460752825
 0
VERTEX
 8
VUE_1
 10
16041.6272279867
 20
8938.0846093882
 0
VERTEX
 8
VUE_1
 10
16057.0262787451
 20
8937.7573237541
 0
VERTEX
 8
VUE_1
 10
16072.4105415118
 20
8937.4676105988
 0
VERTEX
 8
VUE_1
 10
16087.7817753001
 20
8937.2188621408
 0
VERTEX
 8
VUE_1
 10
16103.1417391228
 20
8937.0144705988
 0
VERTEX
 8
VUE_1
 10
16118.4921919930
 20
8936.8578281914
 0
VERTEX
 8
VUE_1
 10
16133.8348929238
 20
8936.7523271371
 0
VERTEX
 8
VUE_1
 10
16149.1716009280
 20
8936.7013596545
 0
VERTEX
 8
VUE_1
 10
16164.5040750188
 20
8936.7083179622
 0
VERTEX
 8
VUE_1
 10
16179.8340742091
 20
8936.7765942789
 0
VERTEX
 8
VUE_1
 10
16195.1633575119
 20
8936.9095808230
 0
VERTEX
 8
VUE_1
 10
16210.4936839403
 20
8937.1106698132
 0
VERTEX
 8
VUE_1
 10
16225.8268125073
 20
8937.3832534680
 0
VERTEX
 8
VUE_1
 10
16225.8268125073
 20
8937.3832534680
 0
VERTEX
 8
VUE_1
 10
16248.2454482217
 20
8937.9140393637
 0
VERTEX
 8
VUE_1
 10
16270.6732721610
 20
8938.5957195768
 0
VERTEX
 8
VUE_1
 10
16293.1097286339
 20
8939.4192087549
 0
VERTEX
 8
VUE_1
 10
16315.5542619491
 20
8940.3754215457
 0
VERTEX
 8
VUE_1
 10
16338.0063164151
 20
8941.4552725971
 0
VERTEX
 8
VUE_1
 10
16360.4653363406
 20
8942.6496765566
 0
VERTEX
 8
VUE_1
 10
16382.9307660342
 20
8943.9495480720
 0
VERTEX
 8
VUE_1
 10
16405.4020498046
 20
8945.3458017909
 0
VERTEX
 8
VUE_1
 10
16427.8786319604
 20
8946.8293523612
 0
VERTEX
 8
VUE_1
 10
16450.3599568104
 20
8948.3911144304
 0
VERTEX
 8
VUE_1
 10
16472.8454686629
 20
8950.0220026463
 0
VERTEX
 8
VUE_1
 10
16495.3346118269
 20
8951.7129316565
 0
VERTEX
 8
VUE_1
 10
16517.8268306110
 20
8953.4548161089
 0
VERTEX
 8
VUE_1
 10
16540.3215693236
 20
8955.2385706510
 0
VERTEX
 8
VUE_1
 10
16562.8182722734
 20
8957.0551099306
 0
VERTEX
 8
VUE_1
 10
16585.3163837692
 20
8958.8953485954
 0
VERTEX
 8
VUE_1
 10
16607.8153481195
 20
8960.7502012931
 0
VERTEX
 8
VUE_1
 10
16630.3146096329
 20
8962.6105826714
 0
VERTEX
 8
VUE_1
 10
16652.8136126184
 20
8964.4674073780
 0
VERTEX
 8
VUE_1
 10
16675.3118013841
 20
8966.3115900605
 0
VERTEX
 8
VUE_1
 10
16675.3118013841
 20
8966.3115900605
 0
VERTEX
 8
VUE_1
 10
16726.3508070425
 20
8970.4170289002
 0
VERTEX
 8
VUE_1
 10
16777.3837281267
 20
8974.4016492684
 0
VERTEX
 8
VUE_1
 10
16828.4115315656
 20
8978.2564725783
 0
VERTEX
 8
VUE_1
 10
16879.4351842891
 20
8981.9725202427
 0
VERTEX
 8
VUE_1
 10
16930.4556532261
 20
8985.5408136747
 0
VERTEX
 8
VUE_1
 10
16981.4739053064
 20
8988.9523742872
 0
VERTEX
 8
VUE_1
 10
17032.4909074589
 20
8992.1982234933
 0
VERTEX
 8
VUE_1
 10
17083.5076266131
 20
8995.2693827058
 0
VERTEX
 8
VUE_1
 10
17576.3198110769
 20
9021.4926212049
 0
VERTEX
 8
VUE_1
 10
17185.5440836445
 20
9000.8517168025
 0
VERTEX
 8
VUE_1
 10
17200.9078882774
 20
9001.6024822812
 0
SEQEND
 0
POLYLINE
 8
VUE_1
 66
1
 0
VERTEX
 8
VUE_1
 10
15692.7531198727
 20
9026.3779462659
 0
VERTEX
 8
VUE_1
 10
15692.8121354642
 20
9027.6252768668
 0
VERTEX
 8
VUE_1
 10
15692.9788104997
 20
9028.8422511102
 0
VERTEX
 8
VUE_1
 10
15693.2475053788
 20
9030.0297340645
 0
VERTEX
 8
VUE_1
 10
15693.6125805009
 20
9031.1885907984
 0
VERTEX
 8
VUE_1
 10
15694.0683962656
 20
9032.3196863801
 0
VERTEX
 8
VUE_1
 10
15694.6093130725
 20
9033.4238858782
 0
VERTEX
 8
VUE_1
 10
15695.2296913211
 20
9034.5020543611
 0
VERTEX
 8
VUE_1
 10
15695.9238914110
 20
9035.5550568973
 0
VERTEX
 8
VUE_1
 10
15696.6862737418
 20
9036.5837585553
 0
VERTEX
 8
VUE_1
 10
15697.5111987129
 20
9037.5890244034
 0
VERTEX
 8
VUE_1
 10
15698.3930267239
 20
9038.5717195101
 0
VERTEX
 8
VUE_1
 10
15699.3261181744
 20
9039.5327089440
 0
VERTEX
 8
VUE_1
 10
15700.3048334638
 20
9040.4728577734
 0
VERTEX
 8
VUE_1
 10
15701.3235329919
 20
9041.3930310668
 0
VERTEX
 8
VUE_1
 10
15702.3765771581
 20
9042.2940938926
 0
VERTEX
 8
VUE_1
 10
15703.4583263619
 20
9043.1769113194
 0
VERTEX
 8
VUE_1
 10
15704.5631410030
 20
9044.0423484156
 0
VERTEX
 8
VUE_1
 10
15705.6853814808
 20
9044.8912702495
 0
VERTEX
 8
VUE_1
 10
15706.8194081949
 20
9045.7245418898
 0
VERTEX
 8
VUE_1
 10
15707.9595815449
 20
9046.5430284048
 0
VERTEX
 8
VUE_1
 10
15707.9595815449
 20
9046.5430284048
 0
VERTEX
 8
VUE_1
 10
15711.5443102337
 20
9049.0217979293
 0
VERTEX
 8
VUE_1
 10
15715.1345430614
 20
9051.3684108184
 0
VERTEX
 8
VUE_1
 10
15718.7307898681
 20
9053.5878229958
 0
VERTEX
 8
VUE_1
 10
15722.3335604941
 20
9055.6849903857
 0
VERTEX
 8
VUE_1
 10
15725.9433647794
 20
9057.6648689121
 0
VERTEX
 8
VUE_1
 10
15729.5607125643
 20
9059.5324144989
 0
VERTEX
 8
VUE_1
 10
15733.1861136888
 20
9061.2925830702
 0
VERTEX
 8
VUE_1
 10
15736.8200779931
 20
9062.9503305499
 0
VERTEX
 8
VUE_1
 10
15740.4631153173
 20
9064.5106128622
 0
VERTEX
 8
VUE_1
 10
15744.1157355017
 20
9065.9783859308
 0
VERTEX
 8
VUE_1
 10
15747.7784483862
 20
9067.3586056800
 0
VERTEX
 8
VUE_1
 10
15751.4517638112
 20
9068.6562280336
 0
VERTEX
 8
VUE_1
 10
15755.1361916167
 20
9069.8762089157
 0
VERTEX
 8
VUE_1
 10
15758.8322416428
 20
9071.0235042503
 0
VERTEX
 8
VUE_1
 10
15762.5404237298
 20
9072.1030699614
 0
VERTEX
 8
VUE_1
 10
15766.2612477177
 20
9073.1198619729
 0
VERTEX
 8
VUE_1
 10
15769.9952234468
 20
9074.0788362090
 0
VERTEX
 8
VUE_1
 10
15773.7428607571
 20
9074.9849485935
 0
VERTEX
 8
VUE_1
 10
15777.5046694888
 20
9075.8431550506
 0
VERTEX
 8
VUE_1
 10
15781.2811594820
 20
9076.6584115041
 0
VERTEX
 8
VUE_1
 10
15781.2811594820
 20
9076.6584115041
 0
VERTEX
 8
VUE_1
 10
15787.8419468630
 20
9077.9770877286
 0
VERTEX
 8
VUE_1
 10
15794.4455213332
 20
9079.1879243038
 0
VERTEX
 8
VUE_1
 10
15801.0893125911
 20
9080.2965238017
 0
VERTEX
 8
VUE_1
 10
15807.7707503349
 20
9081.3084887940
 0
VERTEX
 8
VUE_1
 10
15814.4872642630
 20
9082.2294218528
 0
VERTEX
 8
VUE_1
 10
15821.2362840737
 20
9083.0649255497
 0
VERTEX
 8
VUE_1
 10
15828.0152394653
 20
9083.8206024568
 0
VERTEX
 8
VUE_1
 10
15834.8215601363
 20
9084.5020551458
 0
VERTEX
 8
VUE_1
 10
15841.6526757848
 20
9085.1148861886
 0
VERTEX
 8
VUE_1
 10
15848.5060161094
 20
9085.6646981571
 0
VERTEX
 8
VUE_1
 10
15855.3790108082
 20
9086.1570936233
 0
VERTEX
 8
VUE_1
 10
15862.2690895797
 20
9086.5976751588
 0
VERTEX
 8
VUE_1
 10
15869.1736821222
 20
9086.9920453357
 0
VERTEX
 8
VUE_1
 10
15876.0902181340
 20
9087.3458067257
 0
VERTEX
 8
VUE_1
 10
15883.0161273134
 20
9087.6645619008
 0
VERTEX
 8
VUE_1
 10
15889.9488393588
 20
9087.9539134328
 0
VERTEX
 8
VUE_1
 10
15896.8857839685
 20
9088.2194638935
 0
VERTEX
 8
VUE_1
 10
15903.8243908409
 20
9088.4668158549
 0
VERTEX
 8
VUE_1
 10
15910.7620896743
 20
9088.7015718888
 0
VERTEX
 8
VUE_1
 10
15917.6963101670
 20
9088.9293345672
 0
VERTEX
 8
VUE_1
 10
15917.6963101670
 20
9088.9293345672
 0
VERTEX
 8
VUE_1
 10
15933.2770232007
 20
9089.4340354954
 0
VERTEX
 8
VUE_1
 10
15948.8288754391
 20
9089.9283036286
 0
VERTEX
 8
VUE_1
 10
15964.3536256679
 20
9090.4087466303
 0
VERTEX
 8
VUE_1
 10
15979.8530326726
 20
9090.8719721640
 0
VERTEX
 8
VUE_1
 10
15995.3288552388
 20
9091.3145878930
 0
VERTEX
 8
VUE_1
 10
16010.7828521521
 20
9091.7332014810
 0
VERTEX
 8
VUE_1
 10
16026.2167821980
 20
9092.1244205914
 0
VERTEX
 8
VUE_1
 10
16041.6324041621
 20
9092.4848528876
 0
VERTEX
 8
VUE_1
 10
16057.0314768299
 20
9092.8111060331
 0
VERTEX
 8
VUE_1
 10
16072.4157589870
 20
9093.0997876914
 0
VERTEX
 8
VUE_1
 10
16087.7870094190
 20
9093.3475055261
 0
VERTEX
 8
VUE_1
 10
16103.1469869114
 20
9093.5508672005
 0
VERTEX
 8
VUE_1
 10
16118.4974502498
 20
9093.7064803782
 0
VERTEX
 8
VUE_1
 10
16133.8401582198
 20
9093.8109527227
 0
VERTEX
 8
VUE_1
 10
16149.1768696068
 20
9093.8608918973
 0
VERTEX
 8
VUE_1
 10
16164.5093431966
 20
9093.8529055656
 0
VERTEX
 8
VUE_1
 10
16179.8393377746
 20
9093.7836013911
 0
VERTEX
 8
VUE_1
 10
16195.1686121264
 20
9093.6495870373
 0
VERTEX
 8
VUE_1
 10
16210.4989250375
 20
9093.4474701676
 0
VERTEX
 8
VUE_1
 10
16225.8320352936
 20
9093.1738584455
 0
VERTEX
 8
VUE_1
 10
16225.8320352936
 20
9093.1738584455
 0
VERTEX
 8
VUE_1
 10
16248.2506353691
 20
9092.6415694085
 0
VERTEX
 8
VUE_1
 10
16270.6784135522
 20
9091.9583854383
 0
VERTEX
 8
VUE_1
 10
16293.1148147607
 20
9091.1333919247
 0
VERTEX
 8
VUE_1
 10
16315.5592839125
 20
9090.1756742570
 0
VERTEX
 8
VUE_1
 10
16338.0112659253
 20
9089.0943178248
 0
VERTEX
 8
VUE_1
 10
16360.4702057170
 20
9087.8984080177
 0
VERTEX
 8
VUE_1
 10
16382.9355482053
 20
9086.5970302252
 0
VERTEX
 8
VUE_1
 10
16405.4067383080
 20
9085.1992698368
 0
VERTEX
 8
VUE_1
 10
16427.8832209430
 20
9083.7142122421
 0
VERTEX
 8
VUE_1
 10
16450.3644410281
 20
9082.1509428306
 0
VERTEX
 8
VUE_1
 10
16472.8498434812
 20
9080.5185469919
 0
VERTEX
 8
VUE_1
 10
16495.3388732198
 20
9078.8261101154
 0
VERTEX
 8
VUE_1
 10
16517.8309751620
 20
9077.0827175907
 0
VERTEX
 8
VUE_1
 10
16540.3255942254
 20
9075.2974548074
 0
VERTEX
 8
VUE_1
 10
16562.8221753280
 20
9073.4794071550
 0
VERTEX
 8
VUE_1
 10
16585.3201633874
 20
9071.6376600230
 0
VERTEX
 8
VUE_1
 10
16607.8190033215
 20
9069.7812988010
 0
VERTEX
 8
VUE_1
 10
16630.3181400480
 20
9067.9194088785
 0
VERTEX
 8
VUE_1
 10
16652.8170184849
 20
9066.0610756450
 0
VERTEX
 8
VUE_1
 10
16675.3150835500
 20
9064.2153844901
 0
VERTEX
 8
VUE_1
 10
16675.3150835500
 20
9064.2153844901
 0
VERTEX
 8
VUE_1
 10
16726.3538138289
 20
9060.1065235557
 0
VERTEX
 8
VUE_1
 10
16777.3864676343
 20
9056.1184815005
 0
VERTEX
 8
VUE_1
 10
16828.4140124974
 20
9052.2602368464
 0
VERTEX
 8
VUE_1
 10
16879.4374159496
 20
9048.5407681158
 0
VERTEX
 8
VUE_1
 10
16930.4576455222
 20
9044.9690538308
 0
VERTEX
 8
VUE_1
 10
16981.4756687467
 20
9041.5540725135
 0
VERTEX
 8
VUE_1
 10
17032.4924531543
 20
9038.3048026860
 0
VERTEX
 8
VUE_1
 10
17083.5089662764
 20
9035.2302228707
 0
VERTEX
 8
VUE_1
 10
17576.3198110769
 20
9008.9739197704
 0
VERTEX
 8
VUE_1
 10
17185.5450487896
 20
9029.6410473648
 0
VERTEX
 8
VUE_1
 10
17200.9078882774
 20
9028.8892965258
 0
SEQEND
 0
POLYLINE
 8
VUE_1
 66
1
 0
VERTEX
 8
VUE_1
 10
15269.2734541432
 20
8808.1226706100
 0
VERTEX
 8
VUE_1
 10
17576.3198110769
 20
9005.1432226750
 0
SEQEND
 0
POLYLINE
 8
VUE_1
 66
1
 0
VERTEX
 8
VUE_1
 10
4417.9903306800
 20
8218.8597561435
 0
VERTEX
 8
VUE_1
 10
4417.9903306800
 20
2356.5240938357
 0
SEQEND
 0
POLYLINE
 8
VUE_1
 66
1
 0
VERTEX
 8
VUE_1
 10
4170.7641111475
 20
8284.7951685051
 0
VERTEX
 8
VUE_1
 10
4170.7641111475
 20
2362.9455540833
 0
SEQEND
 0
POLYLINE
 8
VUE_1
 66
1
 0
VERTEX
 8
VUE_1
 10
4257.0831816674
 20
8215.6558527340
 0
VERTEX
 8
VUE_1
 10
4257.0831816674
 20
2398.8680804179
 0
SEQEND
 0
POLYLINE
 8
VUE_1
 66
1
 0
VERTEX
 8
VUE_1
 10
4417.9903306800
 20
2356.5240938357
 0
VERTEX
 8
VUE_1
 10
4170.7641111475
 20
2362.9455540833
 0
SEQEND
 0
POLYLINE
 8
VUE_1
 66
1
 0
VERTEX
 8
VUE_1
 10
4417.9903306800
 20
2356.5240938357
 0
VERTEX
 8
VUE_1
 10
4409.5215333635
 20
2250.6641273801
 0
VERTEX
 8
VUE_1
 10
4388.3495400724
 20
2132.1009649498
 0
VERTEX
 8
VUE_1
 10
4362.9431481230
 20
2043.1785931271
 0
VERTEX
 8
VUE_1
 10
4341.7711548319
 20
1979.6626132537
 0
VERTEX
 8
VUE_1
 10
4312.1303642243
 20
1950.0218226462
 0
VERTEX
 8
VUE_1
 10
4299.4271682497
 20
1945.7874239879
 0
VERTEX
 8
VUE_1
 10
4274.0207763003
 20
1975.4282145955
 0
VERTEX
 8
VUE_1
 10
4248.6143843510
 20
2022.0065998360
 0
VERTEX
 8
VUE_1
 10
4214.7391950852
 20
2132.1009649498
 0
VERTEX
 8
VUE_1
 10
4189.3328031359
 20
2221.0233367725
 0
VERTEX
 8
VUE_1
 10
4170.7641111475
 20
2362.9455540833
 0
SEQEND
 0
POLYLINE
 8
VUE_1
 66
1
 0
VERTEX
 8
VUE_1
 10
4299.4271682497
 20
2356.5240938357
 0
VERTEX
 8
VUE_1
 10
4299.4271682497
 20
1945.7874239879
 0
SEQEND
 0
POLYLINE
 8
VUE_1
 66
1
 0
VERTEX
 8
VUE_1
 10
4178.0199583102
 20
5700.5293869021
 0
VERTEX
 8
VUE_1
 10
2712.9251392010
 20
8481.9125302006
 0
SEQEND
 0
POLYLINE
 8
VUE_1
 66
1
 0
VERTEX
 8
VUE_1
 10
4206.0914897499
 20
5716.8289858026
 0
VERTEX
 8
VUE_1
 10
2465.0185538471
 20
9022.1378654818
 0
SEQEND
 0
POINT
 8
VUE_1
 10
5314.0676910866
 20
9015.5664022949
 0
POINT
 8
VUE_1
 10
1669.7886227102
 20
9023.9720999811
 0
POLYLINE
 8
VUE_1
 66
1
 6
CENTER
 0
VERTEX
 8
VUE_1
 10
5314.0676910866
 20
9015.5664022949
 0
VERTEX
 8
VUE_1
 10
1669.7886227102
 20
9023.9720999811
 0
SEQEND
 0
POLYLINE
 8
VUE_1
 66
1
 0
VERTEX
 8
VUE_1
 10
4347.8462092059
 20
8483.1343319218
 0
VERTEX
 8
VUE_1
 10
2060.9655735467
 20
9557.6831624583
 0
SEQEND
 0
POLYLINE
 8
VUE_1
 66
1
 0
VERTEX
 8
VUE_1
 10
4417.9903306800
 20
8218.8597561435
 0
VERTEX
 8
VUE_1
 10
4170.7641111475
 20
8213.9371101794
 0
SEQEND
 0
POLYLINE
 8
VUE_1
 66
1
 0
VERTEX
 8
VUE_1
 10
4417.9903306795
 20
8218.8597561435
 0
VERTEX
 8
VUE_1
 10
4234.4866461038
 20
8411.6177664895
 0
SEQEND
 0
POLYLINE
 8
VUE_1
 66
1
 0
VERTEX
 8
VUE_1
 10
4084.9499588462
 20
8278.8354385699
 0
VERTEX
 8
VUE_1
 10
3047.6183685714
 20
7935.1698582804
 0
SEQEND
 0
POLYLINE
 8
VUE_1
 66
1
 0
VERTEX
 8
VUE_1
 10
4055.6512803422
 20
8308.1341170739
 0
VERTEX
 8
VUE_1
 10
3018.3196900674
 20
7964.4685367844
 0
SEQEND
 0
POINT
 8
VUE_1
 10
3204.3552307908
 20
9020.4325513502
 0
CIRCLE
 8
VUE_1
 10
3204.3552307908
 20
9020.4325513502
 40
130.6607556391
 0
POLYLINE
 8
VUE_1
 66
1
 0
VERTEX
 8
VUE_1
 10
4004.9724850922
 20
9016.8453943990
 0
VERTEX
 8
VUE_1
 10
4187.0994055221
 20
9645.5791979701
 0
SEQEND
 0
POLYLINE
 8
VUE_1
 66
1
 0
VERTEX
 8
VUE_1
 10
3719.9042618105
 20
9031.0988055631
 0
VERTEX
 8
VUE_1
 10
4187.0994055221
 20
9645.5791979701
 0
SEQEND
 0
POLYLINE
 8
VUE_1
 66
1
 0
VERTEX
 8
VUE_1
 10
4187.0994055221
 20
9645.5791979701
 0
VERTEX
 8
VUE_1
 10
3457.0080114508
 20
9476.9138325285
 0
SEQEND
 0
POLYLINE
 8
VUE_1
 66
1
 0
VERTEX
 8
VUE_1
 10
4187.0994055221
 20
9645.5791979701
 0
VERTEX
 8
VUE_1
 10
3486.3066899548
 20
9674.8778764741
 0
VERTEX
 8
VUE_1
 10
3310.5146189311
 20
9499.0858054504
 0
SEQEND
 0
POLYLINE
 8
VUE_1
 66
1
 0
VERTEX
 8
VUE_1
 10
1369.1472279716
 20
7167.8612239474
 0
VERTEX
 8
VUE_1
 10
1795.7654727330
 20
7167.8612239474
 0
SEQEND
 0
POLYLINE
 8
VUE_1
 66
1
 0
VERTEX
 8
VUE_1
 10
1369.1472279715
 20
7380.0786790570
 0
VERTEX
 8
VUE_1
 10
1795.7654727330
 20
7380.0786790570
 0
SEQEND
 0
POLYLINE
 8
VUE_1
 66
1
 0
VERTEX
 8
VUE_1
 10
1600.8971354172
 20
7438.6760360648
 0
VERTEX
 8
VUE_1
 10
1608.0238409992
 20
7102.1371613575
 0
SEQEND
 0
POLYLINE
 8
VUE_1
 66
1
 0
VERTEX
 8
VUE_1
 10
1791.0535525570
 20
7521.3196948063
 0
VERTEX
 8
VUE_1
 10
2360.2872079924
 20
8636.7544300235
 0
SEQEND
 0
POLYLINE
 8
VUE_1
 66
1
 0
VERTEX
 8
VUE_1
 10
1732.3944481386
 20
7498.8436373804
 0
VERTEX
 8
VUE_1
 10
2485.6248416876
 20
8974.8268941035
 0
SEQEND
 0
POLYLINE
 8
VUE_1
 66
1
 0
VERTEX
 8
VUE_1
 10
2712.9251392010
 20
8481.9125302006
 0
VERTEX
 8
VUE_1
 10
2506.7806005121
 20
8928.9493588872
 0
VERTEX
 8
VUE_1
 10
2360.2872079924
 20
8636.7544300235
 0
SEQEND
 0
POLYLINE
 8
VUE_1
 66
1
 0
VERTEX
 8
VUE_1
 10
5314.0676910866
 20
9015.5664022949
 0
VERTEX
 8
VUE_1
 10
5261.6482360586
 20
9048.5196414303
 0
VERTEX
 8
VUE_1
 10
5207.0101599297
 20
9048.5196414303
 0
VERTEX
 8
VUE_1
 10
4217.9817963776
 20
9095.2391558015
 0
SEQEND
 0
POLYLINE
 8
VUE_1
 66
1
 0
VERTEX
 8
VUE_1
 10
4203.7283852135
 20
8636.7544300235
 0
VERTEX
 8
VUE_1
 10
4200.5609605104
 20
9631.3257868061
 0
VERTEX
 8
VUE_1
 10
4200.5609605104
 20
9643.2036294428
 0
SEQEND
 0
POLYLINE
 8
VUE_1
 66
1
 0
VERTEX
 8
VUE_1
 10
4319.3393868777
 20
8552.8176753906
 0
VERTEX
 8
VUE_1
 10
4195.0179672799
 20
8643.0892794298
 0
VERTEX
 8
VUE_1
 10
3997.8457795101
 20
8772.9536922581
 0
VERTEX
 8
VUE_1
 10
3780.8771873458
 20
8880.6461321645
 0
VERTEX
 8
VUE_1
 10
3583.7049995760
 20
8970.1258800279
 0
VERTEX
 8
VUE_1
 10
3403.9536476734
 20
9046.1440729030
 0
VERTEX
 8
VUE_1
 10
3362.7771265327
 20
9071.4834705280
 0
VERTEX
 8
VUE_1
 10
3293.0937830639
 20
9123.7459781296
 0
SEQEND
 0
POLYLINE
 8
VUE_1
 66
1
 0
VERTEX
 8
VUE_1
 10
3308.0883430091
 20
8840.5643276509
 0
VERTEX
 8
VUE_1
 10
3432.4604700016
 20
8784.8315348948
 0
VERTEX
 8
VUE_1
 10
3580.5375748729
 20
8700.8947802619
 0
VERTEX
 8
VUE_1
 10
3835.5152634748
 20
8593.2023403555
 0
VERTEX
 8
VUE_1
 10
4035.8548759477
 20
8529.8538462929
 0
VERTEX
 8
VUE_1
 10
4238.5700569479
 20
8463.3379275272
 0
VERTEX
 8
VUE_1
 10
4287.6651398464
 20
8457.0030781209
 0
VERTEX
 8
VUE_1
 10
4331.2172295145
 20
8454.6275095936
 0
VERTEX
 8
VUE_1
 10
4351.8054900848
 20
8463.3379275272
 0
VERTEX
 8
VUE_1
 10
4360.5159080184
 20
8480.7587633944
 0
VERTEX
 8
VUE_1
 10
4360.5159080184
 20
8503.7225924921
 0
VERTEX
 8
VUE_1
 10
4345.4706406785
 20
8524.3108530624
 0
VERTEX
 8
VUE_1
 10
4319.3393868777
 20
8552.8176753906
 0
SEQEND
 0
POINT
 8
VUE_1
 10
4202.5138125303
 20
9018.1302525626
 0
POLYLINE
 8
VUE_1
 66
1
 0
VERTEX
 8
VUE_1
 10
4550.3481376903
 20
9079.5389042903
 0
VERTEX
 8
VUE_1
 10
4334.0977074218
 20
9504.1474133578
 0
SEQEND
 0
POLYLINE
 8
VUE_1
 66
1
 0
VERTEX
 8
VUE_1
 10
4532.0243073877
 20
9080.4044815424
 0
VERTEX
 8
VUE_1
 10
4322.6017723910
 20
9491.6063933242
 0
SEQEND
 0
POLYLINE
 8
VUE_1
 66
1
 0
VERTEX
 8
VUE_1
 10
4294.3405803636
 20
9582.2106774355
 0
VERTEX
 8
VUE_1
 10
3886.9859149006
 20
10382.0530497679
 0
SEQEND
 0
POLYLINE
 8
VUE_1
 66
1
 0
VERTEX
 8
VUE_1
 10
4294.3405803636
 20
9582.2106774355
 0
VERTEX
 8
VUE_1
 10
3886.9859149006
 20
10382.0530497679
 0
SEQEND
 0
POLYLINE
 8
VUE_1
 66
1
 0
VERTEX
 8
VUE_1
 10
4294.3405803636
 20
9582.2106774355
 0
VERTEX
 8
VUE_1
 10
3886.9859149006
 20
10382.0530497679
 0
SEQEND
 0
POLYLINE
 8
VUE_1
 66
1
 0
VERTEX
 8
VUE_1
 10
4417.9903306800
 20
9822.0053465568
 0
VERTEX
 8
VUE_1
 10
4417.9903306800
 20
15684.3410088647
 0
SEQEND
 0
POLYLINE
 8
VUE_1
 66
1
 0
VERTEX
 8
VUE_1
 10
4257.0831816674
 20
9825.2092499664
 0
VERTEX
 8
VUE_1
 10
4257.0831816674
 20
15641.9970222824
 0
SEQEND
 0
POLYLINE
 8
VUE_1
 66
1
 0
VERTEX
 8
VUE_1
 10
4170.7641111475
 20
9756.0699341953
 0
VERTEX
 8
VUE_1
 10
4170.7641111475
 20
15677.9195486171
 0
SEQEND
 0
POLYLINE
 8
VUE_1
 66
1
 0
VERTEX
 8
VUE_1
 10
5314.0676910866
 20
9025.2987004054
 0
VERTEX
 8
VUE_1
 10
5261.6482360586
 20
8992.3454612700
 0
VERTEX
 8
VUE_1
 10
5207.0101599297
 20
8992.3454612700
 0
VERTEX
 8
VUE_1
 10
4217.9817963776
 20
8945.6259468989
 0
SEQEND
 0
POLYLINE
 8
VUE_1
 66
1
 0
VERTEX
 8
VUE_1
 10
4084.9499588462
 20
9762.0296641304
 0
VERTEX
 8
VUE_1
 10
3047.6183685714
 20
10105.6952444199
 0
SEQEND
 0
POLYLINE
 8
VUE_1
 66
1
 0
VERTEX
 8
VUE_1
 10
4055.6512803422
 20
9732.7309856265
 0
VERTEX
 8
VUE_1
 10
3018.3196900674
 20
10076.3965659160
 0
SEQEND
 0
POLYLINE
 8
VUE_1
 66
1
 0
VERTEX
 8
VUE_1
 10
4206.0914897499
 20
12324.0361168978
 0
VERTEX
 8
VUE_1
 10
2740.9966706408
 20
9542.6529735992
 0
SEQEND
 0
POLYLINE
 8
VUE_1
 66
1
 0
VERTEX
 8
VUE_1
 10
4178.0199583102
 20
12340.3357157983
 0
VERTEX
 8
VUE_1
 10
2712.9251392010
 20
9558.9525724997
 0
SEQEND
 0
POLYLINE
 8
VUE_1
 66
1
 0
VERTEX
 8
VUE_1
 10
4187.0994055221
 20
8395.2859047302
 0
VERTEX
 8
VUE_1
 10
3486.3066899548
 20
8365.9872262263
 0
VERTEX
 8
VUE_1
 10
3310.5146189311
 20
8541.7792972499
 0
SEQEND
 0
POLYLINE
 8
VUE_1
 66
1
 0
VERTEX
 8
VUE_1
 10
4417.9903306800
 20
9822.0053465568
 0
VERTEX
 8
VUE_1
 10
4170.7641111475
 20
9826.9279925210
 0
SEQEND
 0
POLYLINE
 8
VUE_1
 66
1
 0
VERTEX
 8
VUE_1
 10
4257.0831816674
 20
9825.2092499664
 0
VERTEX
 8
VUE_1
 10
4257.0831816674
 20
15641.9970222824
 0
SEQEND
 0
POLYLINE
 8
VUE_1
 66
1
 0
VERTEX
 8
VUE_1
 10
4417.9903306800
 20
15684.3410088647
 0
VERTEX
 8
VUE_1
 10
4409.5215333635
 20
15790.2009753203
 0
VERTEX
 8
VUE_1
 10
4388.3495400724
 20
15908.7641377506
 0
VERTEX
 8
VUE_1
 10
4362.9431481230
 20
15997.6865095733
 0
VERTEX
 8
VUE_1
 10
4341.7711548319
 20
16061.2024894466
 0
VERTEX
 8
VUE_1
 10
4312.1303642243
 20
16090.8432800542
 0
VERTEX
 8
VUE_1
 10
4299.4271682497
 20
16095.0776787124
 0
VERTEX
 8
VUE_1
 10
4274.0207763003
 20
16065.4368881049
 0
VERTEX
 8
VUE_1
 10
4248.6143843510
 20
16018.8585028644
 0
VERTEX
 8
VUE_1
 10
4214.7391950852
 20
15908.7641377506
 0
VERTEX
 8
VUE_1
 10
4189.3328031359
 20
15819.8417659279
 0
VERTEX
 8
VUE_1
 10
4170.7641111475
 20
15677.9195486171
 0
SEQEND
 0
POLYLINE
 8
VUE_1
 66
1
 0
VERTEX
 8
VUE_1
 10
4299.4271682497
 20
15684.3410088647
 0
VERTEX
 8
VUE_1
 10
4299.4271682497
 20
16095.0776787124
 0
SEQEND
 0
POLYLINE
 8
VUE_1
 66
1
 0
VERTEX
 8
VUE_1
 10
4417.9903306800
 20
15684.3410088647
 0
VERTEX
 8
VUE_1
 10
4170.7641111475
 20
15677.9195486171
 0
SEQEND
 0
POLYLINE
 8
VUE_1
 66
1
 0
VERTEX
 8
VUE_1
 10
4257.0831816674
 20
9825.2092499664
 0
VERTEX
 8
VUE_1
 10
4257.0831816674
 20
15641.9970222824
 0
SEQEND
 0
ARC
 8
VUE_1
 10
1795.7654727330
 20
7273.9699515022
 40
106.1087275548
 50
270.0000000000
 51
90.0000000000
 0
POLYLINE
 8
VUE_1
 66
1
 0
VERTEX
 8
VUE_1
 10
4166.3514986951
 20
7107.3857001272
 0
VERTEX
 8
VUE_1
 10
3473.6151163516
 20
7107.3857001272
 0
SEQEND
 0
POLYLINE
 8
VUE_1
 66
1
 0
VERTEX
 8
VUE_1
 10
4170.7641111475
 20
7126.5116071111
 0
VERTEX
 8
VUE_1
 10
3463.5405362636
 20
7126.5116071111
 0
SEQEND
 0
POLYLINE
 8
VUE_1
 66
1
 0
VERTEX
 8
VUE_1
 10
3867.9873497472
 20
6659.8394767054
 0
VERTEX
 8
VUE_1
 10
3862.3631182725
 20
6637.3680761861
 0
VERTEX
 8
VUE_1
 10
3852.2130970458
 20
6618.7597039371
 0
VERTEX
 8
VUE_1
 10
3842.9089109213
 20
6606.9180125060
 0
VERTEX
 8
VUE_1
 10
3836.1422301035
 20
6601.8430018926
 0
VERTEX
 8
VUE_1
 10
3820.9171982634
 20
6604.3805071993
 0
VERTEX
 8
VUE_1
 10
3808.2296717300
 20
6617.0680337327
 0
VERTEX
 8
VUE_1
 10
3797.2338154010
 20
6635.6764059817
 0
VERTEX
 8
VUE_1
 10
3787.6585404151
 20
6663.6646581021
 0
SEQEND
 0
POLYLINE
 8
VUE_1
 66
1
 0
VERTEX
 8
VUE_1
 10
3867.9873497472
 20
6659.8394767054
 0
VERTEX
 8
VUE_1
 10
3872.7688264931
 20
7107.3857001272
 0
SEQEND
 0
POLYLINE
 8
VUE_1
 66
1
 0
VERTEX
 8
VUE_1
 10
3787.6585404151
 20
6663.6646581021
 0
VERTEX
 8
VUE_1
 10
3782.0060430644
 20
7107.3857001272
 0
SEQEND
 0
POLYLINE
 8
VUE_1
 66
1
 0
VERTEX
 8
VUE_1
 10
4514.8264697208
 20
8959.6482333098
 0
VERTEX
 8
VUE_1
 10
4310.7913496688
 20
8559.0245304340
 0
SEQEND
 0
POLYLINE
 8
VUE_1
 66
1
 0
VERTEX
 8
VUE_1
 10
4260.6103807303
 20
8460.4940147811
 0
VERTEX
 8
VUE_1
 10
3893.5854075189
 20
7739.8391403732
 0
SEQEND
 0
POLYLINE
 8
VUE_1
 66
1
 0
VERTEX
 8
VUE_1
 10
4493.7956217030
 20
8958.6547825227
 0
VERTEX
 8
VUE_1
 10
4295.8075521311
 20
8569.9044853340
 0
SEQEND
 0
POLYLINE
 8
VUE_1
 66
1
 0
VERTEX
 8
VUE_1
 10
4241.3511193229
 20
8462.9790807691
 0
VERTEX
 8
VUE_1
 10
3878.6417174459
 20
7750.7978464267
 0
SEQEND
 0
POINT
 8
VUE_1
 10
3677.4000244634
 20
9023.0039946377
 0
POINT
 8
VUE_1
 10
3648.5088903224
 20
9236.2006396785
 0
POINT
 8
VUE_1
 10
3588.7341300306
 20
9346.7839462184
 0
POINT
 8
VUE_1
 10
3455.2371653788
 20
9453.3822687388
 0
POLYLINE
 8
VUE_1
 66
1
 0
VERTEX
 8
VUE_1
 10
3677.4000244634
 20
9023.0039946377
 0
VERTEX
 8
VUE_1
 10
3677.4176243570
 20
9029.3378110497
 0
VERTEX
 8
VUE_1
 10
3677.4646214368
 20
9035.6796779874
 0
VERTEX
 8
VUE_1
 10
3677.5323118018
 20
9042.0281194110
 0
VERTEX
 8
VUE_1
 10
3677.6119915508
 20
9048.3816592804
 0
VERTEX
 8
VUE_1
 10
3677.6949567828
 20
9054.7388215559
 0
VERTEX
 8
VUE_1
 10
3677.7725035966
 20
9061.0981301973
 0
VERTEX
 8
VUE_1
 10
3677.8359280910
 20
9067.4581091650
 0
VERTEX
 8
VUE_1
 10
3677.8765263649
 20
9073.8172824188
 0
VERTEX
 8
VUE_1
 10
3677.8855945172
 20
9080.1741739189
 0
VERTEX
 8
VUE_1
 10
3677.8544286468
 20
9086.5273076253
 0
VERTEX
 8
VUE_1
 10
3677.7743248525
 20
9092.8752074982
 0
VERTEX
 8
VUE_1
 10
3677.6365792333
 20
9099.2163974975
 0
VERTEX
 8
VUE_1
 10
3677.4324878879
 20
9105.5494015835
 0
VERTEX
 8
VUE_1
 10
3677.1533469153
 20
9111.8727437161
 0
VERTEX
 8
VUE_1
 10
3676.7904524143
 20
9118.1849478554
 0
VERTEX
 8
VUE_1
 10
3676.3351004837
 20
9124.4845379615
 0
VERTEX
 8
VUE_1
 10
3675.7785872226
 20
9130.7700379945
 0
VERTEX
 8
VUE_1
 10
3675.1122087297
 20
9137.0399719144
 0
VERTEX
 8
VUE_1
 10
3674.3272611038
 20
9143.2928636813
 0
VERTEX
 8
VUE_1
 10
3673.4150404440
 20
9149.5272372554
 0
SEQEND
 0
POLYLINE
 8
VUE_1
 66
1
 0
VERTEX
 8
VUE_1
 10
3673.4150404440
 20
9149.5272372554
 0
VERTEX
 8
VUE_1
 10
3672.6836141361
 20
9153.9566376967
 0
VERTEX
 8
VUE_1
 10
3671.8853073468
 20
9158.3759006551
 0
VERTEX
 8
VUE_1
 10
3671.0222513634
 20
9162.7850362319
 0
VERTEX
 8
VUE_1
 10
3670.0965774730
 20
9167.1840545282
 0
VERTEX
 8
VUE_1
 10
3669.1104169630
 20
9171.5729656452
 0
VERTEX
 8
VUE_1
 10
3668.0659011208
 20
9175.9517796841
 0
VERTEX
 8
VUE_1
 10
3666.9651612335
 20
9180.3205067459
 0
VERTEX
 8
VUE_1
 10
3665.8103285886
 20
9184.6791569320
 0
VERTEX
 8
VUE_1
 10
3664.6035344732
 20
9189.0277403434
 0
VERTEX
 8
VUE_1
 10
3663.3469101747
 20
9193.3662670814
 0
VERTEX
 8
VUE_1
 10
3662.0425869803
 20
9197.6947472470
 0
VERTEX
 8
VUE_1
 10
3660.6926961775
 20
9202.0131909416
 0
VERTEX
 8
VUE_1
 10
3659.2993690534
 20
9206.3216082662
 0
VERTEX
 8
VUE_1
 10
3657.8647368953
 20
9210.6200093221
 0
VERTEX
 8
VUE_1
 10
3656.3909309906
 20
9214.9084042103
 0
VERTEX
 8
VUE_1
 10
3654.8800826265
 20
9219.1868030321
 0
VERTEX
 8
VUE_1
 10
3653.3343230903
 20
9223.4552158887
 0
VERTEX
 8
VUE_1
 10
3651.7557836694
 20
9227.7136528812
 0
VERTEX
 8
VUE_1
 10
3650.1465956510
 20
9231.9621241107
 0
VERTEX
 8
VUE_1
 10
3648.5088903224
 20
9236.2006396785
 0
SEQEND
 0
POLYLINE
 8
VUE_1
 66
1
 0
VERTEX
 8
VUE_1
 10
3648.5088903224
 20
9236.2006396785
 0
VERTEX
 8
VUE_1
 10
3646.1811084808
 20
9242.0917392045
 0
VERTEX
 8
VUE_1
 10
3643.7994432522
 20
9247.9608324299
 0
VERTEX
 8
VUE_1
 10
3641.3612794786
 20
9253.8052373486
 0
VERTEX
 8
VUE_1
 10
3638.8640020024
 20
9259.6222719547
 0
VERTEX
 8
VUE_1
 10
3636.3049956655
 20
9265.4092542421
 0
VERTEX
 8
VUE_1
 10
3633.6816453104
 20
9271.1635022048
 0
VERTEX
 8
VUE_1
 10
3630.9913357790
 20
9276.8823338368
 0
VERTEX
 8
VUE_1
 10
3628.2314519137
 20
9282.5630671321
 0
VERTEX
 8
VUE_1
 10
3625.3993785565
 20
9288.2030200846
 0
VERTEX
 8
VUE_1
 10
3622.4925005497
 20
9293.7995106884
 0
VERTEX
 8
VUE_1
 10
3619.5082027354
 20
9299.3498569373
 0
VERTEX
 8
VUE_1
 10
3616.4438699558
 20
9304.8513768255
 0
VERTEX
 8
VUE_1
 10
3613.2968870531
 20
9310.3013883467
 0
VERTEX
 8
VUE_1
 10
3610.0646388695
 20
9315.6972094952
 0
VERTEX
 8
VUE_1
 10
3606.7445102472
 20
9321.0361582647
 0
VERTEX
 8
VUE_1
 10
3603.3338860283
 20
9326.3155526494
 0
VERTEX
 8
VUE_1
 10
3599.8301510550
 20
9331.5327106431
 0
VERTEX
 8
VUE_1
 10
3596.2306901695
 20
9336.6849502398
 0
VERTEX
 8
VUE_1
 10
3592.5328882139
 20
9341.7695894336
 0
VERTEX
 8
VUE_1
 10
3588.7341300306
 20
9346.7839462184
 0
SEQEND
 0
POLYLINE
 8
VUE_1
 66
1
 0
VERTEX
 8
VUE_1
 10
3588.7341300306
 20
9346.7839462184
 0
VERTEX
 8
VUE_1
 10
3583.4072927768
 20
9353.4819777233
 0
VERTEX
 8
VUE_1
 10
3577.8962224430
 20
9360.0439272421
 0
VERTEX
 8
VUE_1
 10
3572.2079752270
 20
9366.4684730816
 0
VERTEX
 8
VUE_1
 10
3566.3496073268
 20
9372.7542935487
 0
VERTEX
 8
VUE_1
 10
3560.3281749402
 20
9378.9000669501
 0
VERTEX
 8
VUE_1
 10
3554.1507342653
 20
9384.9044715928
 0
VERTEX
 8
VUE_1
 10
3547.8243414999
 20
9390.7661857835
 0
VERTEX
 8
VUE_1
 10
3541.3560528421
 20
9396.4838878291
 0
VERTEX
 8
VUE_1
 10
3534.7529244896
 20
9402.0562560363
 0
VERTEX
 8
VUE_1
 10
3528.0220126405
 20
9407.4819687121
 0
VERTEX
 8
VUE_1
 10
3521.1703734927
 20
9412.7597041631
 0
VERTEX
 8
VUE_1
 10
3514.2050632441
 20
9417.8881406964
 0
VERTEX
 8
VUE_1
 10
3507.1331380926
 20
9422.8659566186
 0
VERTEX
 8
VUE_1
 10
3499.9616542362
 20
9427.6918302366
 0
VERTEX
 8
VUE_1
 10
3492.6976678729
 20
9432.3644398573
 0
VERTEX
 8
VUE_1
 10
3485.3482352004
 20
9436.8824637874
 0
VERTEX
 8
VUE_1
 10
3477.9204124169
 20
9441.2445803338
 0
VERTEX
 8
VUE_1
 10
3470.4212557202
 20
9445.4494678033
 0
VERTEX
 8
VUE_1
 10
3462.8578213082
 20
9449.4958045027
 0
VERTEX
 8
VUE_1
 10
3455.2371653788
 20
9453.3822687388
 0
SEQEND
 0
POINT
 8
VUE_1
 10
3582.7566540014
 20
9022.0077486328
 0
POLYLINE
 8
VUE_1
 66
1
 0
VERTEX
 8
VUE_1
 10
3582.7566540014
 20
9022.0077486328
 0
VERTEX
 8
VUE_1
 10
3582.6290976095
 20
9026.7597595157
 0
VERTEX
 8
VUE_1
 10
3582.4664510560
 20
9031.5114274974
 0
VERTEX
 8
VUE_1
 10
3582.2689354327
 20
9036.2624616167
 0
VERTEX
 8
VUE_1
 10
3582.0367718312
 20
9041.0125709121
 0
VERTEX
 8
VUE_1
 10
3581.7701813431
 20
9045.7614644222
 0
VERTEX
 8
VUE_1
 10
3581.4693850601
 20
9050.5088511857
 0
VERTEX
 8
VUE_1
 10
3581.1346040739
 20
9055.2544402411
 0
VERTEX
 8
VUE_1
 10
3580.7660594760
 20
9059.9979406271
 0
VERTEX
 8
VUE_1
 10
3580.3639723582
 20
9064.7390613823
 0
VERTEX
 8
VUE_1
 10
3579.9285638121
 20
9069.4775115452
 0
VERTEX
 8
VUE_1
 10
3579.4600549294
 20
9074.2130001545
 0
VERTEX
 8
VUE_1
 10
3578.9586668016
 20
9078.9452362488
 0
VERTEX
 8
VUE_1
 10
3578.4246205205
 20
9083.6739288666
 0
VERTEX
 8
VUE_1
 10
3577.8581371777
 20
9088.3987870467
 0
VERTEX
 8
VUE_1
 10
3577.2594378648
 20
9093.1195198275
 0
VERTEX
 8
VUE_1
 10
3576.6287436736
 20
9097.8358362478
 0
VERTEX
 8
VUE_1
 10
3575.9662756956
 20
9102.5474453460
 0
VERTEX
 8
VUE_1
 10
3575.2722550225
 20
9107.2540561609
 0
VERTEX
 8
VUE_1
 10
3574.5469027459
 20
9111.9553777310
 0
VERTEX
 8
VUE_1
 10
3573.7904399576
 20
9116.6511190949
 0
SEQEND
 0
POLYLINE
 8
VUE_1
 66
1
 0
VERTEX
 8
VUE_1
 10
3573.7904399576
 20
9116.6511190949
 0
VERTEX
 8
VUE_1
 10
3573.0181180270
 20
9121.2524039135
 0
VERTEX
 8
VUE_1
 10
3572.2154455501
 20
9125.8478167037
 0
VERTEX
 8
VUE_1
 10
3571.3818046587
 20
9130.4371367424
 0
VERTEX
 8
VUE_1
 10
3570.5165774846
 20
9135.0201433061
 0
VERTEX
 8
VUE_1
 10
3569.6191461598
 20
9139.5966156716
 0
VERTEX
 8
VUE_1
 10
3568.6888928160
 20
9144.1663331157
 0
VERTEX
 8
VUE_1
 10
3567.7251995852
 20
9148.7290749150
 0
VERTEX
 8
VUE_1
 10
3566.7274485991
 20
9153.2846203462
 0
VERTEX
 8
VUE_1
 10
3565.6950219896
 20
9157.8327486862
 0
VERTEX
 8
VUE_1
 10
3564.6273018886
 20
9162.3732392114
 0
VERTEX
 8
VUE_1
 10
3563.5236704279
 20
9166.9058711988
 0
VERTEX
 8
VUE_1
 10
3562.3835097393
 20
9171.4304239250
 0
VERTEX
 8
VUE_1
 10
3561.2062019548
 20
9175.9466766668
 0
VERTEX
 8
VUE_1
 10
3559.9911292061
 20
9180.4544087007
 0
VERTEX
 8
VUE_1
 10
3558.7376736251
 20
9184.9533993036
 0
VERTEX
 8
VUE_1
 10
3557.4452173437
 20
9189.4434277522
 0
VERTEX
 8
VUE_1
 10
3556.1131424937
 20
9193.9242733232
 0
VERTEX
 8
VUE_1
 10
3554.7408312069
 20
9198.3957152932
 0
VERTEX
 8
VUE_1
 10
3553.3276656153
 20
9202.8575329391
 0
VERTEX
 8
VUE_1
 10
3551.8730278506
 20
9207.3095055375
 0
SEQEND
 0
POLYLINE
 8
VUE_1
 66
1
 0
VERTEX
 8
VUE_1
 10
3551.8730278506
 20
9207.3095055375
 0
VERTEX
 8
VUE_1
 10
3550.1824463743
 20
9212.3163393635
 0
VERTEX
 8
VUE_1
 10
3548.4369736342
 20
9217.3080762716
 0
VERTEX
 8
VUE_1
 10
3546.6352180981
 20
9222.2824137254
 0
VERTEX
 8
VUE_1
 10
3544.7757882341
 20
9227.2370491882
 0
VERTEX
 8
VUE_1
 10
3542.8572925100
 20
9232.1696801235
 0
VERTEX
 8
VUE_1
 10
3540.8783393937
 20
9237.0780039947
 0
VERTEX
 8
VUE_1
 10
3538.8375373532
 20
9241.9597182654
 0
VERTEX
 8
VUE_1
 10
3536.7334948564
 20
9246.8125203989
 0
VERTEX
 8
VUE_1
 10
3534.5648203712
 20
9251.6341078587
 0
VERTEX
 8
VUE_1
 10
3532.3301223655
 20
9256.4221781083
 0
VERTEX
 8
VUE_1
 10
3530.0280093073
 20
9261.1744286111
 0
VERTEX
 8
VUE_1
 10
3527.6570896645
 20
9265.8885568305
 0
VERTEX
 8
VUE_1
 10
3525.2159719050
 20
9270.5622602301
 0
VERTEX
 8
VUE_1
 10
3522.7032644968
 20
9275.1932362732
 0
VERTEX
 8
VUE_1
 10
3520.1175759077
 20
9279.7791824233
 0
VERTEX
 8
VUE_1
 10
3517.4575146057
 20
9284.3177961438
 0
VERTEX
 8
VUE_1
 10
3514.7216890587
 20
9288.8067748983
 0
VERTEX
 8
VUE_1
 10
3511.9087077346
 20
9293.2438161501
 0
VERTEX
 8
VUE_1
 10
3509.0171791013
 20
9297.6266173627
 0
VERTEX
 8
VUE_1
 10
3506.0457116269
 20
9301.9528759996
 0
SEQEND
 0
POLYLINE
 8
VUE_1
 66
1
 0
VERTEX
 8
VUE_1
 10
3506.0457116269
 20
9301.9528759996
 0
VERTEX
 8
VUE_1
 10
3503.3068433332
 20
9305.7908178042
 0
VERTEX
 8
VUE_1
 10
3500.5049313716
 20
9309.5827525928
 0
VERTEX
 8
VUE_1
 10
3497.6426037407
 20
9313.3301888894
 0
VERTEX
 8
VUE_1
 10
3494.7224884391
 20
9317.0346352179
 0
VERTEX
 8
VUE_1
 10
3491.7472134655
 20
9320.6976001022
 0
VERTEX
 8
VUE_1
 10
3488.7194068186
 20
9324.3205920662
 0
VERTEX
 8
VUE_1
 10
3485.6416964970
 20
9327.9051196339
 0
VERTEX
 8
VUE_1
 10
3482.5167104994
 20
9331.4526913293
 0
VERTEX
 8
VUE_1
 10
3479.3470768245
 20
9334.9648156762
 0
VERTEX
 8
VUE_1
 10
3476.1354234710
 20
9338.4430011986
 0
VERTEX
 8
VUE_1
 10
3472.8843784374
 20
9341.8887564204
 0
VERTEX
 8
VUE_1
 10
3469.5965697226
 20
9345.3035898656
 0
VERTEX
 8
VUE_1
 10
3466.2746253250
 20
9348.6890100581
 0
VERTEX
 8
VUE_1
 10
3462.9211732435
 20
9352.0465255218
 0
VERTEX
 8
VUE_1
 10
3459.5388414766
 20
9355.3776447806
 0
VERTEX
 8
VUE_1
 10
3456.1302580231
 20
9358.6838763586
 0
VERTEX
 8
VUE_1
 10
3452.6980508815
 20
9361.9667287796
 0
VERTEX
 8
VUE_1
 10
3449.2448480507
 20
9365.2277105675
 0
VERTEX
 8
VUE_1
 10
3445.7732775291
 20
9368.4683302464
 0
VERTEX
 8
VUE_1
 10
3442.2859673156
 20
9371.6900963400
 0
SEQEND
 0
POLYLINE
 8
VUE_1
 66
1
 0
VERTEX
 8
VUE_1
 10
3442.2859673156
 20
9371.6900963400
 0
VERTEX
 8
VUE_1
 10
3438.2149098309
 20
9375.4131083507
 0
VERTEX
 8
VUE_1
 10
3434.1254647477
 20
9379.1117289549
 0
VERTEX
 8
VUE_1
 10
3430.0169633266
 20
9382.7850064873
 0
VERTEX
 8
VUE_1
 10
3425.8887368279
 20
9386.4319892822
 0
VERTEX
 8
VUE_1
 10
3421.7401165123
 20
9390.0517256742
 0
VERTEX
 8
VUE_1
 10
3417.5704336403
 20
9393.6432639979
 0
VERTEX
 8
VUE_1
 10
3413.3790194724
 20
9397.2056525877
 0
VERTEX
 8
VUE_1
 10
3409.1652052690
 20
9400.7379397781
 0
VERTEX
 8
VUE_1
 10
3404.9283222908
 20
9404.2391739037
 0
VERTEX
 8
VUE_1
 10
3400.6677017982
 20
9407.7084032989
 0
VERTEX
 8
VUE_1
 10
3396.3826750518
 20
9411.1446762984
 0
VERTEX
 8
VUE_1
 10
3392.0725733121
 20
9414.5470412365
 0
VERTEX
 8
VUE_1
 10
3387.7367278396
 20
9417.9145464478
 0
VERTEX
 8
VUE_1
 10
3383.3744698948
 20
9421.2462402669
 0
VERTEX
 8
VUE_1
 10
3378.9851307382
 20
9424.5411710281
 0
VERTEX
 8
VUE_1
 10
3374.5680416305
 20
9427.7983870661
 0
VERTEX
 8
VUE_1
 10
3370.1225338319
 20
9431.0169367153
 0
VERTEX
 8
VUE_1
 10
3365.6479386032
 20
9434.1958683103
 0
VERTEX
 8
VUE_1
 10
3361.1435872049
 20
9437.3342301856
 0
VERTEX
 8
VUE_1
 10
3356.6088108973
 20
9440.4310706756
 0
SEQEND
 0
POLYLINE
 8
VUE_1
 66
1
 0
VERTEX
 8
VUE_1
 10
3463.2071334177
 20
9027.9852246620
 0
VERTEX
 8
VUE_1
 10
3463.4510706138
 20
9033.2789690786
 0
VERTEX
 8
VUE_1
 10
3463.6203464654
 20
9038.5763821229
 0
VERTEX
 8
VUE_1
 10
3463.7152598299
 20
9043.8766130483
 0
VERTEX
 8
VUE_1
 10
3463.7361095647
 20
9049.1788111083
 0
VERTEX
 8
VUE_1
 10
3463.6831945274
 20
9054.4821255562
 0
VERTEX
 8
VUE_1
 10
3463.5568135754
 20
9059.7857056456
 0
VERTEX
 8
VUE_1
 10
3463.3572655661
 20
9065.0887006298
 0
VERTEX
 8
VUE_1
 10
3463.0848493570
 20
9070.3902597624
 0
VERTEX
 8
VUE_1
 10
3462.7398638055
 20
9075.6895322968
 0
VERTEX
 8
VUE_1
 10
3462.3226077691
 20
9080.9856674863
 0
VERTEX
 8
VUE_1
 10
3461.8333801052
 20
9086.2778145846
 0
VERTEX
 8
VUE_1
 10
3461.2724796714
 20
9091.5651228450
 0
VERTEX
 8
VUE_1
 10
3460.6402053249
 20
9096.8467415209
 0
VERTEX
 8
VUE_1
 10
3459.9368559234
 20
9102.1218198658
 0
VERTEX
 8
VUE_1
 10
3459.1627303242
 20
9107.3895071332
 0
VERTEX
 8
VUE_1
 10
3458.3181273847
 20
9112.6489525765
 0
VERTEX
 8
VUE_1
 10
3457.4033459626
 20
9117.8993054492
 0
VERTEX
 8
VUE_1
 10
3456.4186849151
 20
9123.1397150046
 0
VERTEX
 8
VUE_1
 10
3455.3644430997
 20
9128.3693304962
 0
VERTEX
 8
VUE_1
 10
3454.2409193740
 20
9133.5873011776
 0
SEQEND
 0
POLYLINE
 8
VUE_1
 66
1
 0
VERTEX
 8
VUE_1
 10
3454.2409193740
 20
9133.5873011776
 0
VERTEX
 8
VUE_1
 10
3453.0628407132
 20
9138.7303873384
 0
VERTEX
 8
VUE_1
 10
3451.8162904721
 20
9143.8590855640
 0
VERTEX
 8
VUE_1
 10
3450.5001404274
 20
9148.9712064622
 0
VERTEX
 8
VUE_1
 10
3449.1132623555
 20
9154.0645606409
 0
VERTEX
 8
VUE_1
 10
3447.6545280330
 20
9159.1369587079
 0
VERTEX
 8
VUE_1
 10
3446.1228092366
 20
9164.1862112711
 0
VERTEX
 8
VUE_1
 10
3444.5169777427
 20
9169.2101289383
 0
VERTEX
 8
VUE_1
 10
3442.8359053279
 20
9174.2065223174
 0
VERTEX
 8
VUE_1
 10
3441.0784637688
 20
9179.1732020162
 0
VERTEX
 8
VUE_1
 10
3439.2435248419
 20
9184.1079786427
 0
VERTEX
 8
VUE_1
 10
3437.3299603238
 20
9189.0086628046
 0
VERTEX
 8
VUE_1
 10
3435.3366419910
 20
9193.8730651098
 0
VERTEX
 8
VUE_1
 10
3433.2624416202
 20
9198.6989961663
 0
VERTEX
 8
VUE_1
 10
3431.1062309879
 20
9203.4842665817
 0
VERTEX
 8
VUE_1
 10
3428.8668818706
 20
9208.2266869641
 0
VERTEX
 8
VUE_1
 10
3426.5432660448
 20
9212.9240679212
 0
VERTEX
 8
VUE_1
 10
3424.1342552873
 20
9217.5742200609
 0
VERTEX
 8
VUE_1
 10
3421.6387213744
 20
9222.1749539911
 0
VERTEX
 8
VUE_1
 10
3419.0555360829
 20
9226.7240803196
 0
VERTEX
 8
VUE_1
 10
3416.3835711891
 20
9231.2194096542
 0
SEQEND
 0
POLYLINE
 8
VUE_1
 66
1
 0
VERTEX
 8
VUE_1
 10
3416.3835711891
 20
9231.2194096542
 0
VERTEX
 8
VUE_1
 10
3414.1874665495
 20
9234.7665285105
 0
VERTEX
 8
VUE_1
 10
3411.9356212822
 20
9238.2784429141
 0
VERTEX
 8
VUE_1
 10
3409.6295369431
 20
9241.7555936188
 0
VERTEX
 8
VUE_1
 10
3407.2707150883
 20
9245.1984213783
 0
VERTEX
 8
VUE_1
 10
3404.8606572736
 20
9248.6073669462
 0
VERTEX
 8
VUE_1
 10
3402.4008650551
 20
9251.9828710761
 0
VERTEX
 8
VUE_1
 10
3399.8928399887
 20
9255.3253745219
 0
VERTEX
 8
VUE_1
 10
3397.3380836303
 20
9258.6353180370
 0
VERTEX
 8
VUE_1
 10
3394.7380975360
 20
9261.9131423752
 0
VERTEX
 8
VUE_1
 10
3392.0943832617
 20
9265.1592882903
 0
VERTEX
 8
VUE_1
 10
3389.4084423634
 20
9268.3741965357
 0
VERTEX
 8
VUE_1
 10
3386.6817763970
 20
9271.5583078653
 0
VERTEX
 8
VUE_1
 10
3383.9158869185
 20
9274.7120630326
 0
VERTEX
 8
VUE_1
 10
3381.1122754839
 20
9277.8359027914
 0
VERTEX
 8
VUE_1
 10
3378.2724436491
 20
9280.9302678954
 0
VERTEX
 8
VUE_1
 10
3375.3978929701
 20
9283.9955990981
 0
VERTEX
 8
VUE_1
 10
3372.4901250029
 20
9287.0323371533
 0
VERTEX
 8
VUE_1
 10
3369.5506413034
 20
9290.0409228146
 0
VERTEX
 8
VUE_1
 10
3366.5809434275
 20
9293.0217968357
 0
VERTEX
 8
VUE_1
 10
3363.5825329314
 20
9295.9753999704
 0
SEQEND
 0
POLYLINE
 8
VUE_1
 66
1
 0
VERTEX
 8
VUE_1
 10
3363.5825329314
 20
9295.9753999704
 0
VERTEX
 8
VUE_1
 10
3357.1974826090
 20
9302.0898930349
 0
VERTEX
 8
VUE_1
 10
3350.6954852898
 20
9308.0836858191
 0
VERTEX
 8
VUE_1
 10
3344.0795872660
 20
9313.9543915286
 0
VERTEX
 8
VUE_1
 10
3337.3528348298
 20
9319.6996233691
 0
VERTEX
 8
VUE_1
 10
3330.5182742735
 20
9325.3169945461
 0
VERTEX
 8
VUE_1
 10
3323.5789518892
 20
9330.8041182655
 0
VERTEX
 8
VUE_1
 10
3316.5379139692
 20
9336.1586077327
 0
VERTEX
 8
VUE_1
 10
3309.3982068057
 20
9341.3780761536
 0
VERTEX
 8
VUE_1
 10
3302.1628766909
 20
9346.4601367336
 0
VERTEX
 8
VUE_1
 10
3294.8349699170
 20
9351.4024026786
 0
VERTEX
 8
VUE_1
 10
3287.4175327763
 20
9356.2024871941
 0
VERTEX
 8
VUE_1
 10
3279.9136115609
 20
9360.8580034859
 0
VERTEX
 8
VUE_1
 10
3272.3262525631
 20
9365.3665647595
 0
VERTEX
 8
VUE_1
 10
3264.6585020750
 20
9369.7257842206
 0
VERTEX
 8
VUE_1
 10
3256.9134063890
 20
9373.9332750749
 0
VERTEX
 8
VUE_1
 10
3249.0940117972
 20
9377.9866505280
 0
VERTEX
 8
VUE_1
 10
3241.2033645918
 20
9381.8835237857
 0
VERTEX
 8
VUE_1
 10
3233.2445110651
 20
9385.6215080535
 0
VERTEX
 8
VUE_1
 10
3225.2204975092
 20
9389.1982165371
 0
VERTEX
 8
VUE_1
 10
3217.1343702164
 20
9392.6112624422
 0
SEQEND
 0
POLYLINE
 8
VUE_1
 66
1
 0
VERTEX
 8
VUE_1
 10
3310.5146189311
 20
9499.0858054504
 0
VERTEX
 8
VUE_1
 10
2703.0714317067
 20
9506.1833069966
 0
SEQEND
 0
POINT
 8
VUE_1
 10
2955.1216709372
 20
8994.1128604967
 0
POINT
 8
VUE_1
 10
2945.1592108886
 20
8900.4657360395
 0
POINT
 8
VUE_1
 10
2913.2793387329
 20
8835.7097457233
 0
POINT
 8
VUE_1
 10
2841.5496263827
 20
8794.8636595239
 0
POINT
 8
VUE_1
 10
2778.7861280763
 20
8812.7960876114
 0
POINT
 8
VUE_1
 10
2735.9475498672
 20
8867.5896178790
 0
POINT
 8
VUE_1
 10
2720.0076137894
 20
9116.6511190949
 0
POLYLINE
 8
VUE_1
 66
1
 0
VERTEX
 8
VUE_1
 10
2955.1216709372
 20
8994.1128604967
 0
VERTEX
 8
VUE_1
 10
2955.4517886246
 20
8989.4150052128
 0
VERTEX
 8
VUE_1
 10
2955.6881565311
 20
8984.7097123886
 0
VERTEX
 8
VUE_1
 10
2955.8318690818
 20
8979.9984935273
 0
VERTEX
 8
VUE_1
 10
2955.8840207018
 20
8975.2828601324
 0
VERTEX
 8
VUE_1
 10
2955.8457058161
 20
8970.5643237073
 0
VERTEX
 8
VUE_1
 10
2955.7180188497
 20
8965.8443957555
 0
VERTEX
 8
VUE_1
 10
2955.5020542278
 20
8961.1245877803
 0
VERTEX
 8
VUE_1
 10
2955.1989063754
 20
8956.4064112853
 0
VERTEX
 8
VUE_1
 10
2954.8096697175
 20
8951.6913777738
 0
VERTEX
 8
VUE_1
 10
2954.3354386792
 20
8946.9809987492
 0
VERTEX
 8
VUE_1
 10
2953.7773076856
 20
8942.2767857150
 0
VERTEX
 8
VUE_1
 10
2953.1363711618
 20
8937.5802501746
 0
VERTEX
 8
VUE_1
 10
2952.4137235327
 20
8932.8929036314
 0
VERTEX
 8
VUE_1
 10
2951.6104592235
 20
8928.2162575889
 0
VERTEX
 8
VUE_1
 10
2950.7276726592
 20
8923.5518235505
 0
VERTEX
 8
VUE_1
 10
2949.7664582649
 20
8918.9011130196
 0
VERTEX
 8
VUE_1
 10
2948.7279104656
 20
8914.2656374996
 0
VERTEX
 8
VUE_1
 10
2947.6131236864
 20
8909.6469084939
 0
VERTEX
 8
VUE_1
 10
2946.4231923524
 20
8905.0464375061
 0
VERTEX
 8
VUE_1
 10
2945.1592108886
 20
8900.4657360395
 0
SEQEND
 0
POLYLINE
 8
VUE_1
 66
1
 0
VERTEX
 8
VUE_1
 10
2945.1592108886
 20
8900.4657360395
 0
VERTEX
 8
VUE_1
 10
2944.1405247422
 20
8896.9695580047
 0
VERTEX
 8
VUE_1
 10
2943.0764552455
 20
8893.4879800400
 0
VERTEX
 8
VUE_1
 10
2941.9644731768
 20
8890.0231017569
 0
VERTEX
 8
VUE_1
 10
2940.8020493145
 20
8886.5770227667
 0
VERTEX
 8
VUE_1
 10
2939.5866544370
 20
8883.1518426811
 0
VERTEX
 8
VUE_1
 10
2938.3157593226
 20
8879.7496611113
 0
VERTEX
 8
VUE_1
 10
2936.9868347497
 20
8876.3725776689
 0
VERTEX
 8
VUE_1
 10
2935.5973514966
 20
8873.0226919654
 0
VERTEX
 8
VUE_1
 10
2934.1447803417
 20
8869.7021036122
 0
VERTEX
 8
VUE_1
 10
2932.6265920635
 20
8866.4129122207
 0
VERTEX
 8
VUE_1
 10
2931.0402574401
 20
8863.1572174024
 0
VERTEX
 8
VUE_1
 10
2929.3832472501
 20
8859.9371187688
 0
VERTEX
 8
VUE_1
 10
2927.6530322718
 20
8856.7547159314
 0
VERTEX
 8
VUE_1
 10
2925.8470832835
 20
8853.6121085015
 0
VERTEX
 8
VUE_1
 10
2923.9628710636
 20
8850.5113960907
 0
VERTEX
 8
VUE_1
 10
2921.9978663904
 20
8847.4546783104
 0
VERTEX
 8
VUE_1
 10
2919.9495400425
 20
8844.4440547720
 0
VERTEX
 8
VUE_1
 10
2917.8153627980
 20
8841.4816250871
 0
VERTEX
 8
VUE_1
 10
2915.5928054353
 20
8838.5694888670
 0
VERTEX
 8
VUE_1
 10
2913.2793387329
 20
8835.7097457233
 0
SEQEND
 0
POLYLINE
 8
VUE_1
 66
1
 0
VERTEX
 8
VUE_1
 10
2913.2793387329
 20
8835.7097457233
 0
VERTEX
 8
VUE_1
 10
2910.5203963570
 20
8832.5068901194
 0
VERTEX
 8
VUE_1
 10
2907.6442623048
 20
8829.3825743447
 0
VERTEX
 8
VUE_1
 10
2904.6559502199
 20
8826.3440689765
 0
VERTEX
 8
VUE_1
 10
2901.5604737458
 20
8823.3986445925
 0
VERTEX
 8
VUE_1
 10
2898.3628465260
 20
8820.5535717700
 0
VERTEX
 8
VUE_1
 10
2895.0680822043
 20
8817.8161210867
 0
VERTEX
 8
VUE_1
 10
2891.6811944240
 20
8815.1935631199
 0
VERTEX
 8
VUE_1
 10
2888.2071968288
 20
8812.6931684473
 0
VERTEX
 8
VUE_1
 10
2884.6511030623
 20
8810.3222076462
 0
VERTEX
 8
VUE_1
 10
2881.0179267681
 20
8808.0879512943
 0
VERTEX
 8
VUE_1
 10
2877.3126815896
 20
8805.9976699689
 0
VERTEX
 8
VUE_1
 10
2873.5403811705
 20
8804.0586342476
 0
VERTEX
 8
VUE_1
 10
2869.7060391543
 20
8802.2781147079
 0
VERTEX
 8
VUE_1
 10
2865.8146691846
 20
8800.6633819272
 0
VERTEX
 8
VUE_1
 10
2861.8712849050
 20
8799.2217064832
 0
VERTEX
 8
VUE_1
 10
2857.8808999590
 20
8797.9603589532
 0
VERTEX
 8
VUE_1
 10
2853.8485279902
 20
8796.8866099148
 0
VERTEX
 8
VUE_1
 10
2849.7791826422
 20
8796.0077299454
 0
VERTEX
 8
VUE_1
 10
2845.6778775585
 20
8795.3309896226
 0
VERTEX
 8
VUE_1
 10
2841.5496263827
 20
8794.8636595239
 0
SEQEND
 0
POLYLINE
 8
VUE_1
 66
1
 0
VERTEX
 8
VUE_1
 10
2841.5496263827
 20
8794.8636595239
 0
VERTEX
 8
VUE_1
 10
2838.2695458937
 20
8794.6461328447
 0
VERTEX
 8
VUE_1
 10
2834.9798432933
 20
8794.5615035264
 0
VERTEX
 8
VUE_1
 10
2831.6846118382
 20
8794.6071684664
 0
VERTEX
 8
VUE_1
 10
2828.3879447852
 20
8794.7805245621
 0
VERTEX
 8
VUE_1
 10
2825.0939353910
 20
8795.0789687111
 0
VERTEX
 8
VUE_1
 10
2821.8066769121
 20
8795.4998978108
 0
VERTEX
 8
VUE_1
 10
2818.5302626054
 20
8796.0407087587
 0
VERTEX
 8
VUE_1
 10
2815.2687857275
 20
8796.6987984522
 0
VERTEX
 8
VUE_1
 10
2812.0263395351
 20
8797.4715637888
 0
VERTEX
 8
VUE_1
 10
2808.8070172849
 20
8798.3564016660
 0
VERTEX
 8
VUE_1
 10
2805.6149122337
 20
8799.3507089812
 0
VERTEX
 8
VUE_1
 10
2802.4541176379
 20
8800.4518826319
 0
VERTEX
 8
VUE_1
 10
2799.3287267545
 20
8801.6573195156
 0
VERTEX
 8
VUE_1
 10
2796.2428328400
 20
8802.9644165297
 0
VERTEX
 8
VUE_1
 10
2793.2005291512
 20
8804.3705705717
 0
VERTEX
 8
VUE_1
 10
2790.2059089448
 20
8805.8731785391
 0
VERTEX
 8
VUE_1
 10
2787.2630654774
 20
8807.4696373293
 0
VERTEX
 8
VUE_1
 10
2784.3760920057
 20
8809.1573438397
 0
VERTEX
 8
VUE_1
 10
2781.5490817864
 20
8810.9336949680
 0
VERTEX
 8
VUE_1
 10
2778.7861280763
 20
8812.7960876114
 0
SEQEND
 0
POLYLINE
 8
VUE_1
 66
1
 0
VERTEX
 8
VUE_1
 10
2778.7861280763
 20
8812.7960876114
 0
VERTEX
 8
VUE_1
 10
2775.9163897633
 20
8814.8721954029
 0
VERTEX
 8
VUE_1
 10
2773.1239156010
 20
8817.0394793999
 0
VERTEX
 8
VUE_1
 10
2770.4085968168
 20
8819.2943851248
 0
VERTEX
 8
VUE_1
 10
2767.7703246383
 20
8821.6333580998
 0
VERTEX
 8
VUE_1
 10
2765.2089902932
 20
8824.0528438471
 0
VERTEX
 8
VUE_1
 10
2762.7244850090
 20
8826.5492878891
 0
VERTEX
 8
VUE_1
 10
2760.3167000133
 20
8829.1191357479
 0
VERTEX
 8
VUE_1
 10
2757.9855265336
 20
8831.7588329459
 0
VERTEX
 8
VUE_1
 10
2755.7308557976
 20
8834.4648250053
 0
VERTEX
 8
VUE_1
 10
2753.5525790327
 20
8837.2335574483
 0
VERTEX
 8
VUE_1
 10
2751.4505874667
 20
8840.0614757974
 0
VERTEX
 8
VUE_1
 10
2749.4247723270
 20
8842.9450255746
 0
VERTEX
 8
VUE_1
 10
2747.4750248412
 20
8845.8806523022
 0
VERTEX
 8
VUE_1
 10
2745.6012362370
 20
8848.8648015026
 0
VERTEX
 8
VUE_1
 10
2743.8032977418
 20
8851.8939186980
 0
VERTEX
 8
VUE_1
 10
2742.0811005833
 20
8854.9644494107
 0
VERTEX
 8
VUE_1
 10
2740.4345359890
 20
8858.0728391628
 0
VERTEX
 8
VUE_1
 10
2738.8634951865
 20
8861.2155334767
 0
VERTEX
 8
VUE_1
 10
2737.3678694033
 20
8864.3889778747
 0
VERTEX
 8
VUE_1
 10
2735.9475498672
 20
8867.5896178790
 0
SEQEND
 0
POLYLINE
 8
VUE_1
 66
1
 0
VERTEX
 8
VUE_1
 10
2735.9475498672
 20
8867.5896178790
 0
VERTEX
 8
VUE_1
 10
2733.7299874954
 20
8873.0179385267
 0
VERTEX
 8
VUE_1
 10
2731.7148052248
 20
8878.5086662371
 0
VERTEX
 8
VUE_1
 10
2729.8923213416
 20
8884.0575385377
 0
VERTEX
 8
VUE_1
 10
2728.2528541319
 20
8889.6602929566
 0
VERTEX
 8
VUE_1
 10
2726.7867218815
 20
8895.3126670215
 0
VERTEX
 8
VUE_1
 10
2725.4842428768
 20
8901.0103982602
 0
VERTEX
 8
VUE_1
 10
2724.3357354036
 20
8906.7492242007
 0
VERTEX
 8
VUE_1
 10
2723.3315177480
 20
8912.5248823706
 0
VERTEX
 8
VUE_1
 10
2722.4619081962
 20
8918.3331102979
 0
VERTEX
 8
VUE_1
 10
2721.7172250341
 20
8924.1696455104
 0
VERTEX
 8
VUE_1
 10
2721.0877865479
 20
8930.0302255359
 0
VERTEX
 8
VUE_1
 10
2720.5639110236
 20
8935.9105879022
 0
VERTEX
 8
VUE_1
 10
2720.1359167472
 20
8941.8064701373
 0
VERTEX
 8
VUE_1
 10
2719.7941220048
 20
8947.7136097688
 0
VERTEX
 8
VUE_1
 10
2719.5288450826
 20
8953.6277443246
 0
VERTEX
 8
VUE_1
 10
2719.3304042664
 20
8959.5446113327
 0
VERTEX
 8
VUE_1
 10
2719.1891178425
 20
8965.4599483207
 0
VERTEX
 8
VUE_1
 10
2719.0953040968
 20
8971.3694928166
 0
VERTEX
 8
VUE_1
 10
2719.0392813155
 20
8977.2689823481
 0
VERTEX
 8
VUE_1
 10
2719.0113677845
 20
8983.1541544432
 0
SEQEND
 0
POLYLINE
 8
VUE_1
 66
1
 0
VERTEX
 8
VUE_1
 10
2719.0113677845
 20
8983.1541544432
 0
VERTEX
 8
VUE_1
 10
2719.0066013681
 20
8985.2087715075
 0
VERTEX
 8
VUE_1
 10
2719.0045885502
 20
8987.2612545693
 0
VERTEX
 8
VUE_1
 10
2719.0058279191
 20
8989.3117432824
 0
VERTEX
 8
VUE_1
 10
2719.0108180631
 20
8991.3603773008
 0
VERTEX
 8
VUE_1
 10
2719.0200575704
 20
8993.4072962782
 0
VERTEX
 8
VUE_1
 10
2719.0340450292
 20
8995.4526398686
 0
VERTEX
 8
VUE_1
 10
2719.0532790278
 20
8997.4965477256
 0
VERTEX
 8
VUE_1
 10
2719.0782581545
 20
8999.5391595033
 0
VERTEX
 8
VUE_1
 10
2719.1094809976
 20
9001.5806148554
 0
VERTEX
 8
VUE_1
 10
2719.1474461452
 20
9003.6210534358
 0
VERTEX
 8
VUE_1
 10
2719.1926521856
 20
9005.6606148984
 0
VERTEX
 8
VUE_1
 10
2719.2455977072
 20
9007.6994388969
 0
VERTEX
 8
VUE_1
 10
2719.3067812980
 20
9009.7376650853
 0
VERTEX
 8
VUE_1
 10
2719.3767015465
 20
9011.7754331174
 0
VERTEX
 8
VUE_1
 10
2719.4558570409
 20
9013.8128826470
 0
VERTEX
 8
VUE_1
 10
2719.5447463693
 20
9015.8501533279
 0
VERTEX
 8
VUE_1
 10
2719.6438681201
 20
9017.8873848141
 0
VERTEX
 8
VUE_1
 10
2719.7537208816
 20
9019.9247167594
 0
VERTEX
 8
VUE_1
 10
2719.8748032419
 20
9021.9622888176
 0
VERTEX
 8
VUE_1
 10
2720.0076137894
 20
9024.0002406426
 0
SEQEND
 0
POLYLINE
 8
VUE_1
 66
1
 0
VERTEX
 8
VUE_1
 10
3002.4181038102
 20
8717.9711830889
 0
VERTEX
 8
VUE_1
 10
2848.5233484168
 20
8630.4830687214
 0
SEQEND
 0
POLYLINE
 8
VUE_1
 66
1
 0
VERTEX
 8
VUE_1
 10
2979.2723882435
 20
8758.6853462146
 0
VERTEX
 8
VUE_1
 10
2825.6096903049
 20
8671.3291549208
 0
SEQEND
 0
ARC
 8
VUE_1
 10
2990.8452487876
 20
8738.3282662212
 40
23.4166993198
 50
300.9637565321
 51
120.9637565321
 0
POINT
 8
VUE_1
 10
3002.4181038102
 20
8717.9711830889
 0
POINT
 8
VUE_1
 10
2925.4707261135
 20
8674.2271259051
 0
POINT
 8
VUE_1
 10
2848.5233484168
 20
8630.4830687214
 0
ARC
 8
VUE_1
 10
2836.9504823510
 20
8650.8401455758
 40
23.4166993198
 50
118.2721108517
 51
298.2721108517
 0
POINT
 8
VUE_1
 10
2718.8318425636
 20
9021.5524334296
 0
POINT
 8
VUE_1
 10
2925.4707261135
 20
9368.8777409541
 0
POINT
 8
VUE_1
 10
2925.4707261135
 20
9368.8777409541
 0
POLYLINE
 8
VUE_1
 66
1
 0
VERTEX
 8
VUE_1
 10
3002.4181038102
 20
9325.1336837704
 0
VERTEX
 8
VUE_1
 10
2848.5233484168
 20
9412.6217981379
 0
SEQEND
 0
POINT
 8
VUE_1
 10
3002.4181038102
 20
9325.1336837704
 0
ARC
 8
VUE_1
 10
2990.8452487876
 20
9304.7766006380
 40
23.4166993197
 50
239.0362434679
 51
59.0362434679
 0
POLYLINE
 8
VUE_1
 66
1
 0
VERTEX
 8
VUE_1
 10
2979.2723882435
 20
9284.4195206446
 0
VERTEX
 8
VUE_1
 10
2825.6096903049
 20
9371.7757119385
 0
SEQEND
 0
ARC
 8
VUE_1
 10
2836.9504823510
 20
9392.2647212835
 40
23.4166993198
 50
61.7278891483
 51
241.7278891483
 0
POLYLINE
 8
VUE_1
 66
1
 0
VERTEX
 8
VUE_1
 10
3217.1343702164
 20
9392.6112624422
 0
VERTEX
 8
VUE_1
 10
2972.9568847941
 20
9489.7833538752
 0
SEQEND
 0
POLYLINE
 8
VUE_1
 66
1
 0
VERTEX
 8
VUE_1
 10
3204.3552307908
 20
9012.3502513502
 0
VERTEX
 8
VUE_1
 10
3204.3552307908
 20
9028.5148513502
 0
SEQEND
 0
POLYLINE
 8
VUE_1
 66
1
 0
VERTEX
 8
VUE_1
 10
3212.4375307908
 20
9020.4325513502
 0
VERTEX
 8
VUE_1
 10
3196.2729307908
 20
9020.4325513502
 0
SEQEND
 0
POLYLINE
 8
VUE_1
 66
1
 0
VERTEX
 8
VUE_1
 10
3204.3552307908
 20
8996.1856513502
 0
VERTEX
 8
VUE_1
 10
3204.3552307908
 20
8792.0175642267
 0
SEQEND
 0
POLYLINE
 8
VUE_1
 66
1
 0
VERTEX
 8
VUE_1
 10
3204.3552307908
 20
9248.8475384737
 0
VERTEX
 8
VUE_1
 10
3204.3552307908
 20
9044.6794513502
 0
SEQEND
 0
POLYLINE
 8
VUE_1
 66
1
 0
VERTEX
 8
VUE_1
 10
3228.6021307908
 20
9020.4325513502
 0
VERTEX
 8
VUE_1
 10
3432.7702179143
 20
9020.4325513502
 0
SEQEND
 0
POLYLINE
 8
VUE_1
 66
1
 0
VERTEX
 8
VUE_1
 10
2975.9402436673
 20
9020.4325513502
 0
VERTEX
 8
VUE_1
 10
3180.1083307908
 20
9020.4325513502
 0
SEQEND
 0
POLYLINE
 8
VUE_1
 66
1
 0
VERTEX
 8
VUE_1
 10
3781.7624009372
 20
7126.5116071111
 0
VERTEX
 8
VUE_1
 10
3768.4189888864
 20
8173.9694531023
 0
SEQEND
 0
POLYLINE
 8
VUE_1
 66
1
 0
VERTEX
 8
VUE_1
 10
3767.9241947535
 20
8212.8107925353
 0
VERTEX
 8
VUE_1
 10
3764.7074520344
 20
8465.3250959799
 0
SEQEND
 0
POLYLINE
 8
VUE_1
 66
1
 0
VERTEX
 8
VUE_1
 10
3872.9731631062
 20
7126.5116071111
 0
VERTEX
 8
VUE_1
 10
3884.5750872019
 20
8212.4517024679
 0
SEQEND
 0
POLYLINE
 8
VUE_1
 66
1
 0
VERTEX
 8
VUE_1
 10
3884.9932903358
 20
8251.5955158046
 0
VERTEX
 8
VUE_1
 10
3887.1132567310
 20
8450.0243703929
 0
SEQEND
 0
POLYLINE
 8
VUE_1
 66
1
 0
VERTEX
 8
VUE_1
 10
1592.0177455497
 20
7403.3402696524
 0
VERTEX
 8
VUE_1
 10
3002.3550882491
 20
7943.7307754181
 0
SEQEND
 0
POLYLINE
 8
VUE_1
 66
1
 0
VERTEX
 8
VUE_1
 10
2928.6654738264
 20
7851.6187573899
 0
VERTEX
 8
VUE_1
 10
2893.8676003491
 20
7951.9185103540
 0
SEQEND
 0
POLYLINE
 8
VUE_1
 66
1
 0
VERTEX
 8
VUE_1
 10
1600.9226337865
 20
7437.4719464002
 0
VERTEX
 8
VUE_1
 10
2324.7061796632
 20
7714.7997491745
 0
SEQEND
 0
POLYLINE
 8
VUE_1
 66
1
 0
VERTEX
 8
VUE_1
 10
2320.9791250028
 20
7732.4082672605
 0
VERTEX
 8
VUE_1
 10
2893.8676003491
 20
7951.9185103540
 0
SEQEND
 0
POLYLINE
 8
VUE_1
 66
1
 0
VERTEX
 8
VUE_1
 10
2320.9791250028
 20
7732.4082672605
 0
VERTEX
 8
VUE_1
 10
2355.7769984802
 20
7632.1085142964
 0
SEQEND
 0
POLYLINE
 8
VUE_1
 66
1
 0
VERTEX
 8
VUE_1
 10
2928.6654738264
 20
7851.6187573899
 0
VERTEX
 8
VUE_1
 10
2355.7769984802
 20
7632.1085142964
 0
SEQEND
 0
POLYLINE
 8
VUE_1
 66
1
 0
VERTEX
 8
VUE_1
 10
2345.2308450528
 20
7653.2257530056
 0
VERTEX
 8
VUE_1
 10
1632.3583679673
 20
7380.0786790570
 0
SEQEND
 0
CIRCLE
 8
VUE_1
 10
1610.9039277798
 20
7411.4908050834
 40
32.0446871060
 0
POLYLINE
 8
VUE_1
 66
1
 0
VERTEX
 8
VUE_1
 10
2889.5145642738
 20
9511.0880571622
 0
VERTEX
 8
VUE_1
 10
2885.3510495238
 20
9511.1426826824
 0
VERTEX
 8
VUE_1
 10
2881.1827836340
 20
9511.1217842042
 0
VERTEX
 8
VUE_1
 10
2877.0115862096
 20
9511.0249879900
 0
VERTEX
 8
VUE_1
 10
2872.8392768559
 20
9510.8519203021
 0
VERTEX
 8
VUE_1
 10
2868.6676751783
 20
9510.6022074028
 0
VERTEX
 8
VUE_1
 10
2864.4986007819
 20
9510.2754755542
 0
VERTEX
 8
VUE_1
 10
2860.3338732720
 20
9509.8713510189
 0
VERTEX
 8
VUE_1
 10
2856.1753122539
 20
9509.3894600590
 0
VERTEX
 8
VUE_1
 10
2852.0247373329
 20
9508.8294289368
 0
VERTEX
 8
VUE_1
 10
2847.8839681142
 20
9508.1908839148
 0
VERTEX
 8
VUE_1
 10
2843.7548242031
 20
9507.4734512550
 0
VERTEX
 8
VUE_1
 10
2839.6391252049
 20
9506.6767572199
 0
VERTEX
 8
VUE_1
 10
2835.5386907249
 20
9505.8004280718
 0
VERTEX
 8
VUE_1
 10
2831.4553403682
 20
9504.8440900729
 0
VERTEX
 8
VUE_1
 10
2827.3908937403
 20
9503.8073694855
 0
VERTEX
 8
VUE_1
 10
2823.3471704463
 20
9502.6898925720
 0
VERTEX
 8
VUE_1
 10
2819.3259900915
 20
9501.4912855947
 0
VERTEX
 8
VUE_1
 10
2815.3291722813
 20
9500.2111748158
 0
VERTEX
 8
VUE_1
 10
2811.3585366208
 20
9498.8491864976
 0
VERTEX
 8
VUE_1
 10
2807.4159027153
 20
9497.4049469024
 0
SEQEND
 0
POLYLINE
 8
VUE_1
 66
1
 0
VERTEX
 8
VUE_1
 10
2807.4159027153
 20
9497.4049469024
 0
VERTEX
 8
VUE_1
 10
2803.6084110576
 20
9495.9206322413
 0
VERTEX
 8
VUE_1
 10
2799.8309333207
 20
9494.3590128431
 0
VERTEX
 8
VUE_1
 10
2796.0852516424
 20
9492.7210047991
 0
VERTEX
 8
VUE_1
 10
2792.3731481602
 20
9491.0075242006
 0
VERTEX
 8
VUE_1
 10
2788.6964050118
 20
9489.2194871390
 0
VERTEX
 8
VUE_1
 10
2785.0568043348
 20
9487.3578097057
 0
VERTEX
 8
VUE_1
 10
2781.4561282667
 20
9485.4234079918
 0
VERTEX
 8
VUE_1
 10
2777.8961589453
 20
9483.4171980889
 0
VERTEX
 8
VUE_1
 10
2774.3786785081
 20
9481.3400960881
 0
VERTEX
 8
VUE_1
 10
2770.9054690928
 20
9479.1930180809
 0
VERTEX
 8
VUE_1
 10
2767.4783128369
 20
9476.9768801586
 0
VERTEX
 8
VUE_1
 10
2764.0989918781
 20
9474.6925984125
 0
VERTEX
 8
VUE_1
 10
2760.7692883540
 20
9472.3410889339
 0
VERTEX
 8
VUE_1
 10
2757.4909844022
 20
9469.9232678142
 0
VERTEX
 8
VUE_1
 10
2754.2658621603
 20
9467.4400511447
 0
VERTEX
 8
VUE_1
 10
2751.0957037660
 20
9464.8923550167
 0
VERTEX
 8
VUE_1
 10
2747.9822913569
 20
9462.2810955215
 0
VERTEX
 8
VUE_1
 10
2744.9274070705
 20
9459.6071887506
 0
VERTEX
 8
VUE_1
 10
2741.9328330445
 20
9456.8715507951
 0
VERTEX
 8
VUE_1
 10
2739.0003514166
 20
9454.0750977466
 0
SEQEND
 0
POLYLINE
 8
VUE_1
 66
1
 0
VERTEX
 8
VUE_1
 10
2739.0003514166
 20
9454.0750977466
 0
VERTEX
 8
VUE_1
 10
2735.6156623059
 20
9450.6927168090
 0
VERTEX
 8
VUE_1
 10
2732.3177871218
 20
9447.2300208134
 0
VERTEX
 8
VUE_1
 10
2729.1042932922
 20
9443.6903865224
 0
VERTEX
 8
VUE_1
 10
2725.9727482451
 20
9440.0771906987
 0
VERTEX
 8
VUE_1
 10
2722.9207194085
 20
9436.3938101049
 0
VERTEX
 8
VUE_1
 10
2719.9457742105
 20
9432.6436215035
 0
VERTEX
 8
VUE_1
 10
2717.0454800790
 20
9428.8300016572
 0
VERTEX
 8
VUE_1
 10
2714.2174044421
 20
9424.9563273287
 0
VERTEX
 8
VUE_1
 10
2711.4591147278
 20
9421.0259752804
 0
VERTEX
 8
VUE_1
 10
2708.7681783640
 20
9417.0423222751
 0
VERTEX
 8
VUE_1
 10
2706.1421627789
 20
9413.0087450753
 0
VERTEX
 8
VUE_1
 10
2703.5786354003
 20
9408.9286204436
 0
VERTEX
 8
VUE_1
 10
2701.0751636563
 20
9404.8053251427
 0
VERTEX
 8
VUE_1
 10
2698.6293149749
 20
9400.6422359352
 0
VERTEX
 8
VUE_1
 10
2696.2386567841
 20
9396.4427295836
 0
VERTEX
 8
VUE_1
 10
2693.9007565120
 20
9392.2101828507
 0
VERTEX
 8
VUE_1
 10
2691.6131815865
 20
9387.9479724989
 0
VERTEX
 8
VUE_1
 10
2689.3734994356
 20
9383.6594752910
 0
VERTEX
 8
VUE_1
 10
2687.1792774874
 20
9379.3480679894
 0
VERTEX
 8
VUE_1
 10
2685.0280831698
 20
9375.0171273569
 0
SEQEND
 0
POLYLINE
 8
VUE_1
 66
1
 0
VERTEX
 8
VUE_1
 10
2685.0280831698
 20
9375.0171273569
 0
VERTEX
 8
VUE_1
 10
2682.6827945449
 20
9370.1784492311
 0
VERTEX
 8
VUE_1
 10
2680.3889917888
 20
9365.3199412581
 0
VERTEX
 8
VUE_1
 10
2678.1478988808
 20
9360.4417774949
 0
VERTEX
 8
VUE_1
 10
2675.9607397998
 20
9355.5441319985
 0
VERTEX
 8
VUE_1
 10
2673.8287385251
 20
9350.6271788257
 0
VERTEX
 8
VUE_1
 10
2671.7531190356
 20
9345.6910920335
 0
VERTEX
 8
VUE_1
 10
2669.7351053106
 20
9340.7360456789
 0
VERTEX
 8
VUE_1
 10
2667.7759213291
 20
9335.7622138187
 0
VERTEX
 8
VUE_1
 10
2665.8767910702
 20
9330.7697705099
 0
VERTEX
 8
VUE_1
 10
2664.0389385130
 20
9325.7588898094
 0
VERTEX
 8
VUE_1
 10
2662.2635876365
 20
9320.7297457741
 0
VERTEX
 8
VUE_1
 10
2660.5519624200
 20
9315.6825124610
 0
VERTEX
 8
VUE_1
 10
2658.9052868425
 20
9310.6173639270
 0
VERTEX
 8
VUE_1
 10
2657.3247848831
 20
9305.5344742290
 0
VERTEX
 8
VUE_1
 10
2655.8116805208
 20
9300.4340174239
 0
VERTEX
 8
VUE_1
 10
2654.3671977349
 20
9295.3161675688
 0
VERTEX
 8
VUE_1
 10
2652.9925605043
 20
9290.1810987204
 0
VERTEX
 8
VUE_1
 10
2651.6889928083
 20
9285.0289849358
 0
VERTEX
 8
VUE_1
 10
2650.4577186258
 20
9279.8600002718
 0
VERTEX
 8
VUE_1
 10
2649.2999619360
 20
9274.6743187855
 0
SEQEND
 0
POLYLINE
 8
VUE_1
 66
1
 0
VERTEX
 8
VUE_1
 10
2649.2999619360
 20
9274.6743187855
 0
VERTEX
 8
VUE_1
 10
2648.4437808322
 20
9270.5956482888
 0
VERTEX
 8
VUE_1
 10
2647.6318810729
 20
9266.5072994986
 0
VERTEX
 8
VUE_1
 10
2646.8625676999
 20
9262.4097578984
 0
VERTEX
 8
VUE_1
 10
2646.1341457548
 20
9258.3035089719
 0
VERTEX
 8
VUE_1
 10
2645.4449202794
 20
9254.1890382028
 0
VERTEX
 8
VUE_1
 10
2644.7931963152
 20
9250.0668310748
 0
VERTEX
 8
VUE_1
 10
2644.1772789041
 20
9245.9373730714
 0
VERTEX
 8
VUE_1
 10
2643.5954730876
 20
9241.8011496763
 0
VERTEX
 8
VUE_1
 10
2643.0460839074
 20
9237.6586463732
 0
VERTEX
 8
VUE_1
 10
2642.5274164053
 20
9233.5103486457
 0
VERTEX
 8
VUE_1
 10
2642.0377756229
 20
9229.3567419775
 0
VERTEX
 8
VUE_1
 10
2641.5754666018
 20
9225.1983118523
 0
VERTEX
 8
VUE_1
 10
2641.1387943839
 20
9221.0355437537
 0
VERTEX
 8
VUE_1
 10
2640.7260640106
 20
9216.8689231653
 0
VERTEX
 8
VUE_1
 10
2640.3355805238
 20
9212.6989355708
 0
VERTEX
 8
VUE_1
 10
2639.9656489652
 20
9208.5260664539
 0
VERTEX
 8
VUE_1
 10
2639.6145743763
 20
9204.3508012982
 0
VERTEX
 8
VUE_1
 10
2639.2806617988
 20
9200.1736255873
 0
VERTEX
 8
VUE_1
 10
2638.9622162746
 20
9195.9950248050
 0
VERTEX
 8
VUE_1
 10
2638.6575428451
 20
9191.8154844348
 0
SEQEND
 0
POLYLINE
 8
VUE_1
 66
1
 0
VERTEX
 8
VUE_1
 10
2638.6575428451
 20
9191.8154844348
 0
VERTEX
 8
VUE_1
 10
2638.0797573522
 20
9183.3708959592
 0
VERTEX
 8
VUE_1
 10
2637.5529042690
 20
9174.9248194074
 0
VERTEX
 8
VUE_1
 10
2637.0786314482
 20
9166.4776198179
 0
VERTEX
 8
VUE_1
 10
2636.6585867423
 20
9158.0296622296
 0
VERTEX
 8
VUE_1
 10
2636.2944180042
 20
9149.5813116811
 0
VERTEX
 8
VUE_1
 10
2635.9877730863
 20
9141.1329332112
 0
VERTEX
 8
VUE_1
 10
2635.7402998413
 20
9132.6848918586
 0
VERTEX
 8
VUE_1
 10
2635.5536461220
 20
9124.2375526620
 0
VERTEX
 8
VUE_1
 10
2635.4294597808
 20
9115.7912806600
 0
VERTEX
 8
VUE_1
 10
2635.3693886705
 20
9107.3464408916
 0
VERTEX
 8
VUE_1
 10
2635.3750806436
 20
9098.9033983953
 0
VERTEX
 8
VUE_1
 10
2635.4481835530
 20
9090.4625182099
 0
VERTEX
 8
VUE_1
 10
2635.5903452510
 20
9082.0241653741
 0
VERTEX
 8
VUE_1
 10
2635.8032135905
 20
9073.5887049266
 0
VERTEX
 8
VUE_1
 10
2636.0884364241
 20
9065.1565019061
 0
VERTEX
 8
VUE_1
 10
2636.4476616043
 20
9056.7279213514
 0
VERTEX
 8
VUE_1
 10
2636.8825369839
 20
9048.3033283012
 0
VERTEX
 8
VUE_1
 10
2637.3947104155
 20
9039.8830877942
 0
VERTEX
 8
VUE_1
 10
2637.9858297517
 20
9031.4675648691
 0
VERTEX
 8
VUE_1
 10
2638.6575428451
 20
9023.0571245646
 0
SEQEND
 0
POLYLINE
 8
VUE_1
 66
1
 0
VERTEX
 8
VUE_1
 10
2889.5145642738
 20
8532.0168096971
 0
VERTEX
 8
VUE_1
 10
2885.3510495238
 20
8531.9621841769
 0
VERTEX
 8
VUE_1
 10
2881.1827836340
 20
8531.9830826550
 0
VERTEX
 8
VUE_1
 10
2877.0115862096
 20
8532.0798788692
 0
VERTEX
 8
VUE_1
 10
2872.8392768559
 20
8532.2529465571
 0
VERTEX
 8
VUE_1
 10
2868.6676751783
 20
8532.5026594565
 0
VERTEX
 8
VUE_1
 10
2864.4986007819
 20
8532.8293913050
 0
VERTEX
 8
VUE_1
 10
2860.3338732720
 20
8533.2335158404
 0
VERTEX
 8
VUE_1
 10
2856.1753122539
 20
8533.7154068003
 0
VERTEX
 8
VUE_1
 10
2852.0247373329
 20
8534.2754379224
 0
VERTEX
 8
VUE_1
 10
2847.8839681142
 20
8534.9139829445
 0
VERTEX
 8
VUE_1
 10
2843.7548242031
 20
8535.6314156042
 0
VERTEX
 8
VUE_1
 10
2839.6391252049
 20
8536.4281096393
 0
VERTEX
 8
VUE_1
 10
2835.5386907249
 20
8537.3044387875
 0
VERTEX
 8
VUE_1
 10
2831.4553403682
 20
8538.2607767864
 0
VERTEX
 8
VUE_1
 10
2827.3908937403
 20
8539.2974973737
 0
VERTEX
 8
VUE_1
 10
2823.3471704463
 20
8540.4149742872
 0
VERTEX
 8
VUE_1
 10
2819.3259900915
 20
8541.6135812646
 0
VERTEX
 8
VUE_1
 10
2815.3291722813
 20
8542.8936920435
 0
VERTEX
 8
VUE_1
 10
2811.3585366208
 20
8544.2556803617
 0
VERTEX
 8
VUE_1
 10
2807.4159027153
 20
8545.6999199568
 0
SEQEND
 0
POLYLINE
 8
VUE_1
 66
1
 0
VERTEX
 8
VUE_1
 10
2807.4159027153
 20
8545.6999199568
 0
VERTEX
 8
VUE_1
 10
2803.6084110576
 20
8547.1842346179
 0
VERTEX
 8
VUE_1
 10
2799.8309333207
 20
8548.7458540162
 0
VERTEX
 8
VUE_1
 10
2796.0852516424
 20
8550.3838620602
 0
VERTEX
 8
VUE_1
 10
2792.3731481602
 20
8552.0973426587
 0
VERTEX
 8
VUE_1
 10
2788.6964050118
 20
8553.8853797202
 0
VERTEX
 8
VUE_1
 10
2785.0568043348
 20
8555.7470571536
 0
VERTEX
 8
VUE_1
 10
2781.4561282667
 20
8557.6814588674
 0
VERTEX
 8
VUE_1
 10
2777.8961589453
 20
8559.6876687704
 0
VERTEX
 8
VUE_1
 10
2774.3786785081
 20
8561.7647707711
 0
VERTEX
 8
VUE_1
 10
2770.9054690928
 20
8563.9118487783
 0
VERTEX
 8
VUE_1
 10
2767.4783128369
 20
8566.1279867006
 0
VERTEX
 8
VUE_1
 10
2764.0989918781
 20
8568.4122684468
 0
VERTEX
 8
VUE_1
 10
2760.7692883540
 20
8570.7637779254
 0
VERTEX
 8
VUE_1
 10
2757.4909844022
 20
8573.1815990451
 0
VERTEX
 8
VUE_1
 10
2754.2658621603
 20
8575.6648157146
 0
VERTEX
 8
VUE_1
 10
2751.0957037660
 20
8578.2125118426
 0
VERTEX
 8
VUE_1
 10
2747.9822913569
 20
8580.8237713377
 0
VERTEX
 8
VUE_1
 10
2744.9274070705
 20
8583.4976781087
 0
VERTEX
 8
VUE_1
 10
2741.9328330445
 20
8586.2333160641
 0
VERTEX
 8
VUE_1
 10
2739.0003514166
 20
8589.0297691127
 0
SEQEND
 0
POLYLINE
 8
VUE_1
 66
1
 0
VERTEX
 8
VUE_1
 10
2739.0003514166
 20
8589.0297691127
 0
VERTEX
 8
VUE_1
 10
2735.6156623059
 20
8592.4121500503
 0
VERTEX
 8
VUE_1
 10
2732.3177871218
 20
8595.8748460459
 0
VERTEX
 8
VUE_1
 10
2729.1042932922
 20
8599.4144803369
 0
VERTEX
 8
VUE_1
 10
2725.9727482451
 20
8603.0276761606
 0
VERTEX
 8
VUE_1
 10
2722.9207194085
 20
8606.7110567544
 0
VERTEX
 8
VUE_1
 10
2719.9457742105
 20
8610.4612453557
 0
VERTEX
 8
VUE_1
 10
2717.0454800790
 20
8614.2748652020
 0
VERTEX
 8
VUE_1
 10
2714.2174044421
 20
8618.1485395306
 0
VERTEX
 8
VUE_1
 10
2711.4591147278
 20
8622.0788915788
 0
VERTEX
 8
VUE_1
 10
2708.7681783640
 20
8626.0625445842
 0
VERTEX
 8
VUE_1
 10
2706.1421627789
 20
8630.0961217840
 0
VERTEX
 8
VUE_1
 10
2703.5786354003
 20
8634.1762464156
 0
VERTEX
 8
VUE_1
 10
2701.0751636563
 20
8638.2995417165
 0
VERTEX
 8
VUE_1
 10
2698.6293149749
 20
8642.4626309241
 0
VERTEX
 8
VUE_1
 10
2696.2386567841
 20
8646.6621372756
 0
VERTEX
 8
VUE_1
 10
2693.9007565120
 20
8650.8946840086
 0
VERTEX
 8
VUE_1
 10
2691.6131815865
 20
8655.1568943603
 0
VERTEX
 8
VUE_1
 10
2689.3734994356
 20
8659.4453915683
 0
VERTEX
 8
VUE_1
 10
2687.1792774874
 20
8663.7567988698
 0
VERTEX
 8
VUE_1
 10
2685.0280831698
 20
8668.0877395023
 0
SEQEND
 0
POLYLINE
 8
VUE_1
 66
1
 0
VERTEX
 8
VUE_1
 10
2685.0280831698
 20
8668.0877395023
 0
VERTEX
 8
VUE_1
 10
2682.6827945449
 20
8672.9264176282
 0
VERTEX
 8
VUE_1
 10
2680.3889917888
 20
8677.7849256012
 0
VERTEX
 8
VUE_1
 10
2678.1478988808
 20
8682.6630893643
 0
VERTEX
 8
VUE_1
 10
2675.9607397998
 20
8687.5607348608
 0
VERTEX
 8
VUE_1
 10
2673.8287385251
 20
8692.4776880335
 0
VERTEX
 8
VUE_1
 10
2671.7531190356
 20
8697.4137748257
 0
VERTEX
 8
VUE_1
 10
2669.7351053106
 20
8702.3688211804
 0
VERTEX
 8
VUE_1
 10
2667.7759213291
 20
8707.3426530406
 0
VERTEX
 8
VUE_1
 10
2665.8767910702
 20
8712.3350963494
 0
VERTEX
 8
VUE_1
 10
2664.0389385130
 20
8717.3459770499
 0
VERTEX
 8
VUE_1
 10
2662.2635876365
 20
8722.3751210852
 0
VERTEX
 8
VUE_1
 10
2660.5519624200
 20
8727.4223543983
 0
VERTEX
 8
VUE_1
 10
2658.9052868425
 20
8732.4875029323
 0
VERTEX
 8
VUE_1
 10
2657.3247848831
 20
8737.5703926303
 0
VERTEX
 8
VUE_1
 10
2655.8116805208
 20
8742.6708494353
 0
VERTEX
 8
VUE_1
 10
2654.3671977349
 20
8747.7886992905
 0
VERTEX
 8
VUE_1
 10
2652.9925605043
 20
8752.9237681389
 0
VERTEX
 8
VUE_1
 10
2651.6889928083
 20
8758.0758819235
 0
VERTEX
 8
VUE_1
 10
2650.4577186258
 20
8763.2448665874
 0
VERTEX
 8
VUE_1
 10
2649.2999619360
 20
8768.4305480738
 0
SEQEND
 0
POLYLINE
 8
VUE_1
 66
1
 0
VERTEX
 8
VUE_1
 10
2649.2999619360
 20
8768.4305480738
 0
VERTEX
 8
VUE_1
 10
2648.4437808322
 20
8772.5092185704
 0
VERTEX
 8
VUE_1
 10
2647.6318810729
 20
8776.5975673607
 0
VERTEX
 8
VUE_1
 10
2646.8625676999
 20
8780.6951089609
 0
VERTEX
 8
VUE_1
 10
2646.1341457548
 20
8784.8013578873
 0
VERTEX
 8
VUE_1
 10
2645.4449202794
 20
8788.9158286564
 0
VERTEX
 8
VUE_1
 10
2644.7931963152
 20
8793.0380357845
 0
VERTEX
 8
VUE_1
 10
2644.1772789041
 20
8797.1674937879
 0
VERTEX
 8
VUE_1
 10
2643.5954730876
 20
8801.3037171830
 0
VERTEX
 8
VUE_1
 10
2643.0460839074
 20
8805.4462204861
 0
VERTEX
 8
VUE_1
 10
2642.5274164053
 20
8809.5945182135
 0
VERTEX
 8
VUE_1
 10
2642.0377756229
 20
8813.7481248817
 0
VERTEX
 8
VUE_1
 10
2641.5754666018
 20
8817.9065550070
 0
VERTEX
 8
VUE_1
 10
2641.1387943839
 20
8822.0693231056
 0
VERTEX
 8
VUE_1
 10
2640.7260640106
 20
8826.2359436940
 0
VERTEX
 8
VUE_1
 10
2640.3355805238
 20
8830.4059312885
 0
VERTEX
 8
VUE_1
 10
2639.9656489652
 20
8834.5788004054
 0
VERTEX
 8
VUE_1
 10
2639.6145743763
 20
8838.7540655611
 0
VERTEX
 8
VUE_1
 10
2639.2806617988
 20
8842.9312412720
 0
VERTEX
 8
VUE_1
 10
2638.9622162746
 20
8847.1098420543
 0
VERTEX
 8
VUE_1
 10
2638.6575428451
 20
8851.2893824245
 0
SEQEND
 0
POLYLINE
 8
VUE_1
 66
1
 0
VERTEX
 8
VUE_1
 10
2638.6575428451
 20
8851.2893824245
 0
VERTEX
 8
VUE_1
 10
2638.0797573522
 20
8859.7339709000
 0
VERTEX
 8
VUE_1
 10
2637.5529042690
 20
8868.1800474519
 0
VERTEX
 8
VUE_1
 10
2637.0786314482
 20
8876.6272470413
 0
VERTEX
 8
VUE_1
 10
2636.6585867423
 20
8885.0752046297
 0
VERTEX
 8
VUE_1
 10
2636.2944180042
 20
8893.5235551781
 0
VERTEX
 8
VUE_1
 10
2635.9877730863
 20
8901.9719336480
 0
VERTEX
 8
VUE_1
 10
2635.7402998413
 20
8910.4199750007
 0
VERTEX
 8
VUE_1
 10
2635.5536461220
 20
8918.8673141973
 0
VERTEX
 8
VUE_1
 10
2635.4294597808
 20
8927.3135861992
 0
VERTEX
 8
VUE_1
 10
2635.3693886705
 20
8935.7584259677
 0
VERTEX
 8
VUE_1
 10
2635.3750806436
 20
8944.2014684640
 0
VERTEX
 8
VUE_1
 10
2635.4481835530
 20
8952.6423486494
 0
VERTEX
 8
VUE_1
 10
2635.5903452510
 20
8961.0807014852
 0
VERTEX
 8
VUE_1
 10
2635.8032135905
 20
8969.5161619327
 0
VERTEX
 8
VUE_1
 10
2636.0884364241
 20
8977.9483649532
 0
VERTEX
 8
VUE_1
 10
2636.4476616043
 20
8986.3769455079
 0
VERTEX
 8
VUE_1
 10
2636.8825369839
 20
8994.8015385581
 0
VERTEX
 8
VUE_1
 10
2637.3947104155
 20
9003.2217790651
 0
VERTEX
 8
VUE_1
 10
2637.9858297517
 20
9011.6373019902
 0
VERTEX
 8
VUE_1
 10
2638.6575428451
 20
9020.0477422947
 0
SEQEND
 0
POLYLINE
 8
VUE_1
 66
1
 0
VERTEX
 8
VUE_1
 10
3217.1343702164
 20
8650.4936044171
 0
VERTEX
 8
VUE_1
 10
2938.6636109840
 20
8539.6742713785
 0
SEQEND
 0
POLYLINE
 8
VUE_1
 66
1
 0
VERTEX
 8
VUE_1
 10
3310.5146189311
 20
8544.0190614088
 0
VERTEX
 8
VUE_1
 10
2938.6636109840
 20
8539.6742713785
 0
SEQEND
 0
POLYLINE
 8
VUE_1
 66
1
 0
VERTEX
 8
VUE_1
 10
2856.8271342088
 20
8532.0168096971
 0
VERTEX
 8
VUE_1
 10
2852.6636194588
 20
8531.9621841769
 0
VERTEX
 8
VUE_1
 10
2848.4953535690
 20
8531.9830826550
 0
VERTEX
 8
VUE_1
 10
2844.3241561447
 20
8532.0798788692
 0
VERTEX
 8
VUE_1
 10
2840.1518467910
 20
8532.2529465571
 0
VERTEX
 8
VUE_1
 10
2835.9802451133
 20
8532.5026594565
 0
VERTEX
 8
VUE_1
 10
2831.8111707169
 20
8532.8293913050
 0
VERTEX
 8
VUE_1
 10
2827.6464432070
 20
8533.2335158404
 0
VERTEX
 8
VUE_1
 10
2823.4878821889
 20
8533.7154068003
 0
VERTEX
 8
VUE_1
 10
2819.3373072679
 20
8534.2754379224
 0
VERTEX
 8
VUE_1
 10
2815.1965380492
 20
8534.9139829445
 0
VERTEX
 8
VUE_1
 10
2811.0673941382
 20
8535.6314156042
 0
VERTEX
 8
VUE_1
 10
2806.9516951400
 20
8536.4281096393
 0
VERTEX
 8
VUE_1
 10
2802.8512606599
 20
8537.3044387875
 0
VERTEX
 8
VUE_1
 10
2798.7679103033
 20
8538.2607767864
 0
VERTEX
 8
VUE_1
 10
2794.7034636753
 20
8539.2974973737
 0
VERTEX
 8
VUE_1
 10
2790.6597403813
 20
8540.4149742872
 0
VERTEX
 8
VUE_1
 10
2786.6385600266
 20
8541.6135812646
 0
VERTEX
 8
VUE_1
 10
2782.6417422163
 20
8542.8936920435
 0
VERTEX
 8
VUE_1
 10
2778.6711065558
 20
8544.2556803617
 0
VERTEX
 8
VUE_1
 10
2774.7284726504
 20
8545.6999199568
 0
SEQEND
 0
POLYLINE
 8
VUE_1
 66
1
 0
VERTEX
 8
VUE_1
 10
2774.7284726504
 20
8545.6999199568
 0
VERTEX
 8
VUE_1
 10
2770.9209809926
 20
8547.1842346179
 0
VERTEX
 8
VUE_1
 10
2767.1435032558
 20
8548.7458540162
 0
VERTEX
 8
VUE_1
 10
2763.3978215774
 20
8550.3838620602
 0
VERTEX
 8
VUE_1
 10
2759.6857180953
 20
8552.0973426587
 0
VERTEX
 8
VUE_1
 10
2756.0089749469
 20
8553.8853797202
 0
VERTEX
 8
VUE_1
 10
2752.3693742698
 20
8555.7470571536
 0
VERTEX
 8
VUE_1
 10
2748.7686982018
 20
8557.6814588674
 0
VERTEX
 8
VUE_1
 10
2745.2087288804
 20
8559.6876687704
 0
VERTEX
 8
VUE_1
 10
2741.6912484432
 20
8561.7647707711
 0
VERTEX
 8
VUE_1
 10
2738.2180390278
 20
8563.9118487783
 0
VERTEX
 8
VUE_1
 10
2734.7908827719
 20
8566.1279867006
 0
VERTEX
 8
VUE_1
 10
2731.4115618131
 20
8568.4122684468
 0
VERTEX
 8
VUE_1
 10
2728.0818582890
 20
8570.7637779254
 0
VERTEX
 8
VUE_1
 10
2724.8035543372
 20
8573.1815990451
 0
VERTEX
 8
VUE_1
 10
2721.5784320954
 20
8575.6648157146
 0
VERTEX
 8
VUE_1
 10
2718.4082737011
 20
8578.2125118426
 0
VERTEX
 8
VUE_1
 10
2715.2948612919
 20
8580.8237713377
 0
VERTEX
 8
VUE_1
 10
2712.2399770056
 20
8583.4976781087
 0
VERTEX
 8
VUE_1
 10
2709.2454029796
 20
8586.2333160641
 0
VERTEX
 8
VUE_1
 10
2706.3129213516
 20
8589.0297691127
 0
SEQEND
 0
POLYLINE
 8
VUE_1
 66
1
 0
VERTEX
 8
VUE_1
 10
2706.3129213516
 20
8589.0297691127
 0
VERTEX
 8
VUE_1
 10
2702.9282322410
 20
8592.4121500503
 0
VERTEX
 8
VUE_1
 10
2699.6303570568
 20
8595.8748460459
 0
VERTEX
 8
VUE_1
 10
2696.4168632272
 20
8599.4144803369
 0
VERTEX
 8
VUE_1
 10
2693.2853181801
 20
8603.0276761606
 0
VERTEX
 8
VUE_1
 10
2690.2332893436
 20
8606.7110567544
 0
VERTEX
 8
VUE_1
 10
2687.2583441456
 20
8610.4612453557
 0
VERTEX
 8
VUE_1
 10
2684.3580500141
 20
8614.2748652020
 0
VERTEX
 8
VUE_1
 10
2681.5299743772
 20
8618.1485395306
 0
VERTEX
 8
VUE_1
 10
2678.7716846629
 20
8622.0788915788
 0
VERTEX
 8
VUE_1
 10
2676.0807482991
 20
8626.0625445842
 0
VERTEX
 8
VUE_1
 10
2673.4547327139
 20
8630.0961217840
 0
VERTEX
 8
VUE_1
 10
2670.8912053353
 20
8634.1762464156
 0
VERTEX
 8
VUE_1
 10
2668.3877335913
 20
8638.2995417165
 0
VERTEX
 8
VUE_1
 10
2665.9418849100
 20
8642.4626309241
 0
VERTEX
 8
VUE_1
 10
2663.5512267192
 20
8646.6621372756
 0
VERTEX
 8
VUE_1
 10
2661.2133264471
 20
8650.8946840086
 0
VERTEX
 8
VUE_1
 10
2658.9257515215
 20
8655.1568943603
 0
VERTEX
 8
VUE_1
 10
2656.6860693707
 20
8659.4453915683
 0
VERTEX
 8
VUE_1
 10
2654.4918474224
 20
8663.7567988698
 0
VERTEX
 8
VUE_1
 10
2652.3406531049
 20
8668.0877395023
 0
SEQEND
 0
POLYLINE
 8
VUE_1
 66
1
 0
VERTEX
 8
VUE_1
 10
2652.3406531049
 20
8668.0877395023
 0
VERTEX
 8
VUE_1
 10
2649.9953644799
 20
8672.9264176282
 0
VERTEX
 8
VUE_1
 10
2647.7015617238
 20
8677.7849256012
 0
VERTEX
 8
VUE_1
 10
2645.4604688158
 20
8682.6630893643
 0
VERTEX
 8
VUE_1
 10
2643.2733097349
 20
8687.5607348608
 0
VERTEX
 8
VUE_1
 10
2641.1413084601
 20
8692.4776880335
 0
VERTEX
 8
VUE_1
 10
2639.0656889707
 20
8697.4137748257
 0
VERTEX
 8
VUE_1
 10
2637.0476752457
 20
8702.3688211804
 0
VERTEX
 8
VUE_1
 10
2635.0884912642
 20
8707.3426530406
 0
VERTEX
 8
VUE_1
 10
2633.1893610052
 20
8712.3350963494
 0
VERTEX
 8
VUE_1
 10
2631.3515084480
 20
8717.3459770499
 0
VERTEX
 8
VUE_1
 10
2629.5761575716
 20
8722.3751210852
 0
VERTEX
 8
VUE_1
 10
2627.8645323551
 20
8727.4223543983
 0
VERTEX
 8
VUE_1
 10
2626.2178567775
 20
8732.4875029323
 0
VERTEX
 8
VUE_1
 10
2624.6373548181
 20
8737.5703926303
 0
VERTEX
 8
VUE_1
 10
2623.1242504559
 20
8742.6708494353
 0
VERTEX
 8
VUE_1
 10
2621.6797676699
 20
8747.7886992905
 0
VERTEX
 8
VUE_1
 10
2620.3051304394
 20
8752.9237681389
 0
VERTEX
 8
VUE_1
 10
2619.0015627433
 20
8758.0758819235
 0
VERTEX
 8
VUE_1
 10
2617.7702885609
 20
8763.2448665874
 0
VERTEX
 8
VUE_1
 10
2616.6125318711
 20
8768.4305480738
 0
SEQEND
 0
POLYLINE
 8
VUE_1
 66
1
 0
VERTEX
 8
VUE_1
 10
2616.6125318711
 20
8768.4305480738
 0
VERTEX
 8
VUE_1
 10
2615.7563507672
 20
8772.5092185704
 0
VERTEX
 8
VUE_1
 10
2614.9444510080
 20
8776.5975673607
 0
VERTEX
 8
VUE_1
 10
2614.1751376350
 20
8780.6951089609
 0
VERTEX
 8
VUE_1
 10
2613.4467156899
 20
8784.8013578873
 0
VERTEX
 8
VUE_1
 10
2612.7574902144
 20
8788.9158286564
 0
VERTEX
 8
VUE_1
 10
2612.1057662503
 20
8793.0380357845
 0
VERTEX
 8
VUE_1
 10
2611.4898488391
 20
8797.1674937879
 0
VERTEX
 8
VUE_1
 10
2610.9080430226
 20
8801.3037171830
 0
VERTEX
 8
VUE_1
 10
2610.3586538425
 20
8805.4462204861
 0
VERTEX
 8
VUE_1
 10
2609.8399863403
 20
8809.5945182135
 0
VERTEX
 8
VUE_1
 10
2609.3503455579
 20
8813.7481248817
 0
VERTEX
 8
VUE_1
 10
2608.8880365369
 20
8817.9065550070
 0
VERTEX
 8
VUE_1
 10
2608.4513643189
 20
8822.0693231056
 0
VERTEX
 8
VUE_1
 10
2608.0386339457
 20
8826.2359436940
 0
VERTEX
 8
VUE_1
 10
2607.6481504589
 20
8830.4059312885
 0
VERTEX
 8
VUE_1
 10
2607.2782189002
 20
8834.5788004054
 0
VERTEX
 8
VUE_1
 10
2606.9271443113
 20
8838.7540655611
 0
VERTEX
 8
VUE_1
 10
2606.5932317339
 20
8842.9312412720
 0
VERTEX
 8
VUE_1
 10
2606.2747862096
 20
8847.1098420543
 0
VERTEX
 8
VUE_1
 10
2605.9701127802
 20
8851.2893824245
 0
SEQEND
 0
POLYLINE
 8
VUE_1
 66
1
 0
VERTEX
 8
VUE_1
 10
2605.9701127802
 20
8851.2893824245
 0
VERTEX
 8
VUE_1
 10
2605.3923272872
 20
8859.7339709000
 0
VERTEX
 8
VUE_1
 10
2604.8654742040
 20
8868.1800474519
 0
VERTEX
 8
VUE_1
 10
2604.3912013832
 20
8876.6272470413
 0
VERTEX
 8
VUE_1
 10
2603.9711566774
 20
8885.0752046297
 0
VERTEX
 8
VUE_1
 10
2603.6069879392
 20
8893.5235551781
 0
VERTEX
 8
VUE_1
 10
2603.3003430213
 20
8901.9719336481
 0
VERTEX
 8
VUE_1
 10
2603.0528697764
 20
8910.4199750007
 0
VERTEX
 8
VUE_1
 10
2602.8662160570
 20
8918.8673141973
 0
VERTEX
 8
VUE_1
 10
2602.7420297158
 20
8927.3135861992
 0
VERTEX
 8
VUE_1
 10
2602.6819586055
 20
8935.7584259677
 0
VERTEX
 8
VUE_1
 10
2602.6876505787
 20
8944.2014684640
 0
VERTEX
 8
VUE_1
 10
2602.7607534880
 20
8952.6423486494
 0
VERTEX
 8
VUE_1
 10
2602.9029151861
 20
8961.0807014852
 0
VERTEX
 8
VUE_1
 10
2603.1157835256
 20
8969.5161619327
 0
VERTEX
 8
VUE_1
 10
2603.4010063591
 20
8977.9483649532
 0
VERTEX
 8
VUE_1
 10
2603.7602315394
 20
8986.3769455079
 0
VERTEX
 8
VUE_1
 10
2604.1951069190
 20
8994.8015385581
 0
VERTEX
 8
VUE_1
 10
2604.7072803505
 20
9003.2217790651
 0
VERTEX
 8
VUE_1
 10
2605.2983996867
 20
9011.6373019902
 0
VERTEX
 8
VUE_1
 10
2605.9701127802
 20
9020.0477422947
 0
SEQEND
 0
POLYLINE
 8
VUE_1
 66
1
 0
VERTEX
 8
VUE_1
 10
2856.8271342088
 20
9511.0880571622
 0
VERTEX
 8
VUE_1
 10
2852.6636194588
 20
9511.1426826824
 0
VERTEX
 8
VUE_1
 10
2848.4953535690
 20
9511.1217842042
 0
VERTEX
 8
VUE_1
 10
2844.3241561447
 20
9511.0249879900
 0
VERTEX
 8
VUE_1
 10
2840.1518467910
 20
9510.8519203021
 0
VERTEX
 8
VUE_1
 10
2835.9802451133
 20
9510.6022074028
 0
VERTEX
 8
VUE_1
 10
2831.8111707169
 20
9510.2754755542
 0
VERTEX
 8
VUE_1
 10
2827.6464432070
 20
9509.8713510189
 0
VERTEX
 8
VUE_1
 10
2823.4878821889
 20
9509.3894600590
 0
VERTEX
 8
VUE_1
 10
2819.3373072679
 20
9508.8294289368
 0
VERTEX
 8
VUE_1
 10
2815.1965380492
 20
9508.1908839148
 0
VERTEX
 8
VUE_1
 10
2811.0673941382
 20
9507.4734512550
 0
VERTEX
 8
VUE_1
 10
2806.9516951400
 20
9506.6767572199
 0
VERTEX
 8
VUE_1
 10
2802.8512606599
 20
9505.8004280718
 0
VERTEX
 8
VUE_1
 10
2798.7679103033
 20
9504.8440900729
 0
VERTEX
 8
VUE_1
 10
2794.7034636753
 20
9503.8073694855
 0
VERTEX
 8
VUE_1
 10
2790.6597403813
 20
9502.6898925720
 0
VERTEX
 8
VUE_1
 10
2786.6385600266
 20
9501.4912855947
 0
VERTEX
 8
VUE_1
 10
2782.6417422163
 20
9500.2111748158
 0
VERTEX
 8
VUE_1
 10
2778.6711065558
 20
9498.8491864976
 0
VERTEX
 8
VUE_1
 10
2774.7284726504
 20
9497.4049469024
 0
SEQEND
 0
POLYLINE
 8
VUE_1
 66
1
 0
VERTEX
 8
VUE_1
 10
2774.7284726504
 20
9497.4049469024
 0
VERTEX
 8
VUE_1
 10
2770.9209809926
 20
9495.9206322413
 0
VERTEX
 8
VUE_1
 10
2767.1435032558
 20
9494.3590128431
 0
VERTEX
 8
VUE_1
 10
2763.3978215774
 20
9492.7210047991
 0
VERTEX
 8
VUE_1
 10
2759.6857180953
 20
9491.0075242006
 0
VERTEX
 8
VUE_1
 10
2756.0089749469
 20
9489.2194871390
 0
VERTEX
 8
VUE_1
 10
2752.3693742698
 20
9487.3578097057
 0
VERTEX
 8
VUE_1
 10
2748.7686982018
 20
9485.4234079918
 0
VERTEX
 8
VUE_1
 10
2745.2087288804
 20
9483.4171980889
 0
VERTEX
 8
VUE_1
 10
2741.6912484432
 20
9481.3400960881
 0
VERTEX
 8
VUE_1
 10
2738.2180390278
 20
9479.1930180809
 0
VERTEX
 8
VUE_1
 10
2734.7908827719
 20
9476.9768801586
 0
VERTEX
 8
VUE_1
 10
2731.4115618131
 20
9474.6925984125
 0
VERTEX
 8
VUE_1
 10
2728.0818582890
 20
9472.3410889339
 0
VERTEX
 8
VUE_1
 10
2724.8035543372
 20
9469.9232678142
 0
VERTEX
 8
VUE_1
 10
2721.5784320954
 20
9467.4400511447
 0
VERTEX
 8
VUE_1
 10
2718.4082737011
 20
9464.8923550167
 0
VERTEX
 8
VUE_1
 10
2715.2948612919
 20
9462.2810955215
 0
VERTEX
 8
VUE_1
 10
2712.2399770056
 20
9459.6071887506
 0
VERTEX
 8
VUE_1
 10
2709.2454029796
 20
9456.8715507951
 0
VERTEX
 8
VUE_1
 10
2706.3129213516
 20
9454.0750977466
 0
SEQEND
 0
POLYLINE
 8
VUE_1
 66
1
 0
VERTEX
 8
VUE_1
 10
2706.3129213516
 20
9454.0750977466
 0
VERTEX
 8
VUE_1
 10
2702.9282322410
 20
9450.6927168090
 0
VERTEX
 8
VUE_1
 10
2699.6303570568
 20
9447.2300208134
 0
VERTEX
 8
VUE_1
 10
2696.4168632272
 20
9443.6903865224
 0
VERTEX
 8
VUE_1
 10
2693.2853181801
 20
9440.0771906987
 0
VERTEX
 8
VUE_1
 10
2690.2332893436
 20
9436.3938101049
 0
VERTEX
 8
VUE_1
 10
2687.2583441456
 20
9432.6436215035
 0
VERTEX
 8
VUE_1
 10
2684.3580500141
 20
9428.8300016572
 0
VERTEX
 8
VUE_1
 10
2681.5299743772
 20
9424.9563273287
 0
VERTEX
 8
VUE_1
 10
2678.7716846629
 20
9421.0259752804
 0
VERTEX
 8
VUE_1
 10
2676.0807482991
 20
9417.0423222751
 0
VERTEX
 8
VUE_1
 10
2673.4547327139
 20
9413.0087450753
 0
VERTEX
 8
VUE_1
 10
2670.8912053353
 20
9408.9286204436
 0
VERTEX
 8
VUE_1
 10
2668.3877335913
 20
9404.8053251427
 0
VERTEX
 8
VUE_1
 10
2665.9418849100
 20
9400.6422359352
 0
VERTEX
 8
VUE_1
 10
2663.5512267192
 20
9396.4427295836
 0
VERTEX
 8
VUE_1
 10
2661.2133264471
 20
9392.2101828507
 0
VERTEX
 8
VUE_1
 10
2658.9257515215
 20
9387.9479724989
 0
VERTEX
 8
VUE_1
 10
2656.6860693707
 20
9383.6594752910
 0
VERTEX
 8
VUE_1
 10
2654.4918474224
 20
9379.3480679894
 0
VERTEX
 8
VUE_1
 10
2652.3406531049
 20
9375.0171273569
 0
SEQEND
 0
POLYLINE
 8
VUE_1
 66
1
 0
VERTEX
 8
VUE_1
 10
2652.3406531049
 20
9375.0171273569
 0
VERTEX
 8
VUE_1
 10
2649.9953644799
 20
9370.1784492311
 0
VERTEX
 8
VUE_1
 10
2647.7015617239
 20
9365.3199412581
 0
VERTEX
 8
VUE_1
 10
2645.4604688158
 20
9360.4417774949
 0
VERTEX
 8
VUE_1
 10
2643.2733097349
 20
9355.5441319985
 0
VERTEX
 8
VUE_1
 10
2641.1413084601
 20
9350.6271788257
 0
VERTEX
 8
VUE_1
 10
2639.0656889707
 20
9345.6910920335
 0
VERTEX
 8
VUE_1
 10
2637.0476752457
 20
9340.7360456789
 0
VERTEX
 8
VUE_1
 10
2635.0884912642
 20
9335.7622138187
 0
VERTEX
 8
VUE_1
 10
2633.1893610052
 20
9330.7697705099
 0
VERTEX
 8
VUE_1
 10
2631.3515084480
 20
9325.7588898094
 0
VERTEX
 8
VUE_1
 10
2629.5761575716
 20
9320.7297457741
 0
VERTEX
 8
VUE_1
 10
2627.8645323551
 20
9315.6825124610
 0
VERTEX
 8
VUE_1
 10
2626.2178567775
 20
9310.6173639270
 0
VERTEX
 8
VUE_1
 10
2624.6373548181
 20
9305.5344742290
 0
VERTEX
 8
VUE_1
 10
2623.1242504559
 20
9300.4340174239
 0
VERTEX
 8
VUE_1
 10
2621.6797676699
 20
9295.3161675688
 0
VERTEX
 8
VUE_1
 10
2620.3051304394
 20
9290.1810987204
 0
VERTEX
 8
VUE_1
 10
2619.0015627433
 20
9285.0289849358
 0
VERTEX
 8
VUE_1
 10
2617.7702885609
 20
9279.8600002718
 0
VERTEX
 8
VUE_1
 10
2616.6125318711
 20
9274.6743187855
 0
SEQEND
 0
POLYLINE
 8
VUE_1
 66
1
 0
VERTEX
 8
VUE_1
 10
2616.6125318711
 20
9274.6743187855
 0
VERTEX
 8
VUE_1
 10
2615.7563507672
 20
9270.5956482888
 0
VERTEX
 8
VUE_1
 10
2614.9444510080
 20
9266.5072994986
 0
VERTEX
 8
VUE_1
 10
2614.1751376350
 20
9262.4097578984
 0
VERTEX
 8
VUE_1
 10
2613.4467156899
 20
9258.3035089719
 0
VERTEX
 8
VUE_1
 10
2612.7574902144
 20
9254.1890382028
 0
VERTEX
 8
VUE_1
 10
2612.1057662503
 20
9250.0668310748
 0
VERTEX
 8
VUE_1
 10
2611.4898488391
 20
9245.9373730714
 0
VERTEX
 8
VUE_1
 10
2610.9080430226
 20
9241.8011496763
 0
VERTEX
 8
VUE_1
 10
2610.3586538425
 20
9237.6586463732
 0
VERTEX
 8
VUE_1
 10
2609.8399863403
 20
9233.5103486457
 0
VERTEX
 8
VUE_1
 10
2609.3503455579
 20
9229.3567419775
 0
VERTEX
 8
VUE_1
 10
2608.8880365369
 20
9225.1983118523
 0
VERTEX
 8
VUE_1
 10
2608.4513643189
 20
9221.0355437537
 0
VERTEX
 8
VUE_1
 10
2608.0386339457
 20
9216.8689231653
 0
VERTEX
 8
VUE_1
 10
2607.6481504589
 20
9212.6989355708
 0
VERTEX
 8
VUE_1
 10
2607.2782189002
 20
9208.5260664539
 0
VERTEX
 8
VUE_1
 10
2606.9271443113
 20
9204.3508012982
 0
VERTEX
 8
VUE_1
 10
2606.5932317339
 20
9200.1736255873
 0
VERTEX
 8
VUE_1
 10
2606.2747862096
 20
9195.9950248050
 0
VERTEX
 8
VUE_1
 10
2605.9701127802
 20
9191.8154844348
 0
SEQEND
 0
POLYLINE
 8
VUE_1
 66
1
 0
VERTEX
 8
VUE_1
 10
2605.9701127802
 20
9191.8154844348
 0
VERTEX
 8
VUE_1
 10
2605.3923272872
 20
9183.3708959592
 0
VERTEX
 8
VUE_1
 10
2604.8654742040
 20
9174.9248194074
 0
VERTEX
 8
VUE_1
 10
2604.3912013832
 20
9166.4776198179
 0
VERTEX
 8
VUE_1
 10
2603.9711566774
 20
9158.0296622296
 0
VERTEX
 8
VUE_1
 10
2603.6069879392
 20
9149.5813116811
 0
VERTEX
 8
VUE_1
 10
2603.3003430213
 20
9141.1329332112
 0
VERTEX
 8
VUE_1
 10
2603.0528697764
 20
9132.6848918586
 0
VERTEX
 8
VUE_1
 10
2602.8662160570
 20
9124.2375526620
 0
VERTEX
 8
VUE_1
 10
2602.7420297158
 20
9115.7912806600
 0
VERTEX
 8
VUE_1
 10
2602.6819586055
 20
9107.3464408916
 0
VERTEX
 8
VUE_1
 10
2602.6876505787
 20
9098.9033983953
 0
VERTEX
 8
VUE_1
 10
2602.7607534880
 20
9090.4625182099
 0
VERTEX
 8
VUE_1
 10
2602.9029151861
 20
9082.0241653741
 0
VERTEX
 8
VUE_1
 10
2603.1157835256
 20
9073.5887049266
 0
VERTEX
 8
VUE_1
 10
2603.4010063591
 20
9065.1565019061
 0
VERTEX
 8
VUE_1
 10
2603.7602315394
 20
9056.7279213514
 0
VERTEX
 8
VUE_1
 10
2604.1951069190
 20
9048.3033283012
 0
VERTEX
 8
VUE_1
 10
2604.7072803505
 20
9039.8830877942
 0
VERTEX
 8
VUE_1
 10
2605.2983996867
 20
9031.4675648691
 0
VERTEX
 8
VUE_1
 10
2605.9701127802
 20
9023.0571245646
 0
SEQEND
 0
POLYLINE
 8
VUE_1
 66
1
 0
VERTEX
 8
VUE_1
 10
3042.4543527560
 20
8964.4325076843
 0
VERTEX
 8
VUE_1
 10
2877.3931197544
 20
9045.6439982900
 0
VERTEX
 8
VUE_1
 10
2718.2625702959
 20
9106.0565466092
 0
VERTEX
 8
VUE_1
 10
2472.6111530097
 20
9233.5973811800
 0
VERTEX
 8
VUE_1
 10
2295.9705191633
 20
9347.3826108900
 0
VERTEX
 8
VUE_1
 10
2115.3753135825
 20
9460.9747927443
 0
VERTEX
 8
VUE_1
 10
2079.1617392703
 20
9494.7243781839
 0
VERTEX
 8
VUE_1
 10
2049.5340474877
 20
9526.7341848049
 0
VERTEX
 8
VUE_1
 10
2043.0979276795
 20
9548.1426928264
 0
VERTEX
 8
VUE_1
 10
2050.9485749303
 20
9565.9675137409
 0
VERTEX
 8
VUE_1
 10
2068.6259812407
 20
9580.6251654275
 0
VERTEX
 8
VUE_1
 10
2094.0779793826
 20
9582.1847593570
 0
VERTEX
 8
VUE_1
 10
2132.7017425837
 20
9580.2647956493
 0
SEQEND
 0
POLYLINE
 8
VUE_1
 66
1
 0
VERTEX
 8
VUE_1
 10
2132.7017425837
 20
9580.2647956493
 0
VERTEX
 8
VUE_1
 10
2281.5457299692
 20
9542.1827094958
 0
VERTEX
 8
VUE_1
 10
2507.3681404818
 20
9473.2923889899
 0
VERTEX
 8
VUE_1
 10
2728.7586170454
 20
9375.0107096913
 0
VERTEX
 8
VUE_1
 10
2923.4931750812
 20
9280.3431396675
 0
VERTEX
 8
VUE_1
 10
3096.7455177935
 20
9190.4935993043
 0
VERTEX
 8
VUE_1
 10
3142.5343070913
 20
9174.9701415744
 0
VERTEX
 8
VUE_1
 10
3227.2440369157
 20
9154.6871504022
 0
SEQEND
 0
POINT
 8
VUE_1
 10
3648.5088903224
 20
8804.6644630218
 0
POINT
 8
VUE_1
 10
3588.7341300306
 20
8694.0811564819
 0
POLYLINE
 8
VUE_1
 66
1
 0
VERTEX
 8
VUE_1
 10
4004.9724850922
 20
9024.0197083013
 0
VERTEX
 8
VUE_1
 10
4187.0994055221
 20
8395.2859047302
 0
SEQEND
 0
POLYLINE
 8
VUE_1
 66
1
 0
VERTEX
 8
VUE_1
 10
3719.9042618105
 20
9009.7662971372
 0
VERTEX
 8
VUE_1
 10
4187.0994055221
 20
8395.2859047302
 0
SEQEND
 0
POLYLINE
 8
VUE_1
 66
1
 0
VERTEX
 8
VUE_1
 10
4187.0994055221
 20
8395.2859047302
 0
VERTEX
 8
VUE_1
 10
3457.0080114508
 20
8563.9512701718
 0
SEQEND
 0
POLYLINE
 8
VUE_1
 66
1
 0
VERTEX
 8
VUE_1
 10
3781.7624009372
 20
10914.3534955893
 0
VERTEX
 8
VUE_1
 10
3768.4189888864
 20
9866.8956495980
 0
SEQEND
 0
POLYLINE
 8
VUE_1
 66
1
 0
VERTEX
 8
VUE_1
 10
3872.9731631062
 20
10914.3534955893
 0
VERTEX
 8
VUE_1
 10
3884.5750872019
 20
9828.4134002324
 0
SEQEND
 0
POLYLINE
 8
VUE_1
 66
1
 0
VERTEX
 8
VUE_1
 10
4170.7641111475
 20
10914.3534955893
 0
VERTEX
 8
VUE_1
 10
3463.5405362636
 20
10914.3534955893
 0
SEQEND
 0
POLYLINE
 8
VUE_1
 66
1
 0
VERTEX
 8
VUE_1
 10
4170.7641111475
 20
10914.3534955893
 0
VERTEX
 8
VUE_1
 10
3463.5405362636
 20
10914.3534955893
 0
SEQEND
 0
POLYLINE
 8
VUE_1
 66
1
 0
VERTEX
 8
VUE_1
 10
4170.7641111475
 20
10914.3534955893
 0
VERTEX
 8
VUE_1
 10
3463.5405362636
 20
10914.3534955893
 0
SEQEND
 0
POLYLINE
 8
VUE_1
 66
1
 0
VERTEX
 8
VUE_1
 10
4170.7641111475
 20
10914.3534955893
 0
VERTEX
 8
VUE_1
 10
3463.5405362636
 20
10914.3534955893
 0
SEQEND
 0
POLYLINE
 8
VUE_1
 66
1
 0
VERTEX
 8
VUE_1
 10
4170.7641111475
 20
10914.3534955893
 0
VERTEX
 8
VUE_1
 10
3463.5405362636
 20
10914.3534955893
 0
SEQEND
 0
POLYLINE
 8
VUE_1
 66
1
 0
VERTEX
 8
VUE_1
 10
3867.9873497472
 20
11381.0256259950
 0
VERTEX
 8
VUE_1
 10
3872.7688264931
 20
10933.4794025731
 0
SEQEND
 0
POLYLINE
 8
VUE_1
 66
1
 0
VERTEX
 8
VUE_1
 10
3787.6585404151
 20
11377.2004445982
 0
VERTEX
 8
VUE_1
 10
3782.0060430644
 20
10933.4794025731
 0
SEQEND
 0
POLYLINE
 8
VUE_1
 66
1
 0
VERTEX
 8
VUE_1
 10
3867.9873497472
 20
11381.0256259950
 0
VERTEX
 8
VUE_1
 10
3862.3631182725
 20
11403.4970265142
 0
VERTEX
 8
VUE_1
 10
3852.2130970458
 20
11422.1053987632
 0
VERTEX
 8
VUE_1
 10
3842.9089109213
 20
11433.9470901944
 0
VERTEX
 8
VUE_1
 10
3836.1422301035
 20
11439.0221008078
 0
VERTEX
 8
VUE_1
 10
3820.9171982634
 20
11436.4845955011
 0
VERTEX
 8
VUE_1
 10
3808.2296717300
 20
11423.7970689677
 0
VERTEX
 8
VUE_1
 10
3797.2338154010
 20
11405.1886967187
 0
VERTEX
 8
VUE_1
 10
3787.6585404151
 20
11377.2004445982
 0
SEQEND
 0
POLYLINE
 8
VUE_1
 66
1
 0
VERTEX
 8
VUE_1
 10
3867.9873497472
 20
11381.0256259950
 0
VERTEX
 8
VUE_1
 10
3862.3631182725
 20
11403.4970265142
 0
VERTEX
 8
VUE_1
 10
3852.2130970458
 20
11422.1053987632
 0
VERTEX
 8
VUE_1
 10
3842.9089109213
 20
11433.9470901944
 0
VERTEX
 8
VUE_1
 10
3836.1422301035
 20
11439.0221008078
 0
VERTEX
 8
VUE_1
 10
3820.9171982634
 20
11436.4845955011
 0
VERTEX
 8
VUE_1
 10
3808.2296717300
 20
11423.7970689677
 0
VERTEX
 8
VUE_1
 10
3797.2338154010
 20
11405.1886967187
 0
VERTEX
 8
VUE_1
 10
3787.6585404151
 20
11377.2004445982
 0
SEQEND
 0
POLYLINE
 8
VUE_1
 66
1
 0
VERTEX
 8
VUE_1
 10
4170.7641111475
 20
10914.3534955893
 0
VERTEX
 8
VUE_1
 10
3463.5405362636
 20
10914.3534955893
 0
SEQEND
 0
POLYLINE
 8
VUE_1
 66
1
 0
VERTEX
 8
VUE_1
 10
4170.7641111475
 20
10917.5038901546
 0
VERTEX
 8
VUE_1
 10
3463.5405362636
 20
10917.5038901546
 0
SEQEND
 0
POLYLINE
 8
VUE_1
 66
1
 0
VERTEX
 8
VUE_1
 10
4166.3514986951
 20
10936.6297971384
 0
VERTEX
 8
VUE_1
 10
3473.6151163516
 20
10936.6297971384
 0
SEQEND
 0
POLYLINE
 8
VUE_1
 66
1
 0
VERTEX
 8
VUE_1
 10
1732.3944481386
 20
10549.1005625817
 0
VERTEX
 8
VUE_1
 10
2240.9486077963
 20
9552.5695792063
 0
SEQEND
 0
ARC
 8
VUE_1
 10
1795.7654727330
 20
10773.9742484599
 40
106.1087275548
 50
270.0000000000
 51
90.0000000000
 0
POLYLINE
 8
VUE_1
 66
1
 0
VERTEX
 8
VUE_1
 10
1388.6796803075
 20
10880.0829760147
 0
VERTEX
 8
VUE_1
 10
1795.7654727330
 20
10880.0829760147
 0
SEQEND
 0
POLYLINE
 8
VUE_1
 66
1
 0
VERTEX
 8
VUE_1
 10
1369.1472279715
 20
10667.8655209051
 0
VERTEX
 8
VUE_1
 10
1795.7654727330
 20
10667.8655209051
 0
SEQEND
 0
POLYLINE
 8
VUE_1
 66
1
 0
VERTEX
 8
VUE_1
 10
1600.8971354172
 20
10609.2681638972
 0
VERTEX
 8
VUE_1
 10
1608.0238409992
 20
10945.8070386046
 0
SEQEND
 0
POLYLINE
 8
VUE_1
 66
1
 0
VERTEX
 8
VUE_1
 10
1369.1472279715
 20
10667.8655209051
 0
VERTEX
 8
VUE_1
 10
1795.7654727330
 20
10667.8655209051
 0
SEQEND
 0
POLYLINE
 8
VUE_1
 66
1
 0
VERTEX
 8
VUE_1
 10
2928.6654738264
 20
10196.3254425722
 0
VERTEX
 8
VUE_1
 10
2355.7769984802
 20
10415.8356856657
 0
SEQEND
 0
POLYLINE
 8
VUE_1
 66
1
 0
VERTEX
 8
VUE_1
 10
2320.9791250028
 20
10315.5359327016
 0
VERTEX
 8
VUE_1
 10
2893.8676003491
 20
10096.0256896081
 0
SEQEND
 0
POLYLINE
 8
VUE_1
 66
1
 0
VERTEX
 8
VUE_1
 10
2345.2308450528
 20
10394.7184469565
 0
VERTEX
 8
VUE_1
 10
1632.3583679673
 20
10667.8655209051
 0
SEQEND
 0
POLYLINE
 8
VUE_1
 66
1
 0
VERTEX
 8
VUE_1
 10
2345.2308450528
 20
10394.7184469565
 0
VERTEX
 8
VUE_1
 10
1632.3583679673
 20
10667.8655209051
 0
SEQEND
 0
POLYLINE
 8
VUE_1
 66
1
 0
VERTEX
 8
VUE_1
 10
2345.2308450528
 20
10394.7184469565
 0
VERTEX
 8
VUE_1
 10
1632.3583679673
 20
10667.8655209051
 0
SEQEND
 0
POLYLINE
 8
VUE_1
 66
1
 0
VERTEX
 8
VUE_1
 10
2345.2308450528
 20
10394.7184469565
 0
VERTEX
 8
VUE_1
 10
1632.3583679673
 20
10667.8655209051
 0
SEQEND
 0
POLYLINE
 8
VUE_1
 66
1
 0
VERTEX
 8
VUE_1
 10
2345.2308450528
 20
10394.7184469565
 0
VERTEX
 8
VUE_1
 10
1632.3583679673
 20
10667.8655209051
 0
SEQEND
 0
POLYLINE
 8
VUE_1
 66
1
 0
VERTEX
 8
VUE_1
 10
2345.2308450528
 20
10394.7184469565
 0
VERTEX
 8
VUE_1
 10
1632.3583679673
 20
10667.8655209051
 0
SEQEND
 0
POLYLINE
 8
VUE_1
 66
1
 0
VERTEX
 8
VUE_1
 10
1369.1472279715
 20
10880.0829760147
 0
VERTEX
 8
VUE_1
 10
1795.7654727330
 20
10880.0829760147
 0
SEQEND
 0
POLYLINE
 8
VUE_1
 66
1
 0
VERTEX
 8
VUE_1
 10
1369.1472279715
 20
10667.8655209051
 0
VERTEX
 8
VUE_1
 10
1795.7654727330
 20
10667.8655209051
 0
SEQEND
 0
POLYLINE
 8
VUE_1
 66
1
 0
VERTEX
 8
VUE_1
 10
1600.8971354172
 20
10609.2681638972
 0
VERTEX
 8
VUE_1
 10
1608.0238409992
 20
10945.8070386046
 0
SEQEND
 0
POLYLINE
 8
VUE_1
 66
1
 0
VERTEX
 8
VUE_1
 10
1791.0535525570
 20
10526.6245051558
 0
VERTEX
 8
VUE_1
 10
2295.6311451443
 20
9537.8857543633
 0
SEQEND
 0
ARC
 8
VUE_1
 10
1795.7654727330
 20
10773.9742484599
 40
106.1087275548
 50
270.0000000000
 51
90.0000000000
 0
POLYLINE
 8
VUE_1
 66
1
 0
VERTEX
 8
VUE_1
 10
1592.0177455497
 20
10644.6039303097
 0
VERTEX
 8
VUE_1
 10
3002.3550882491
 20
10104.2134245440
 0
SEQEND
 0
POLYLINE
 8
VUE_1
 66
1
 0
VERTEX
 8
VUE_1
 10
1600.9226337865
 20
10610.4722535619
 0
VERTEX
 8
VUE_1
 10
2324.7061796632
 20
10333.1444507877
 0
SEQEND
 0
POLYLINE
 8
VUE_1
 66
1
 0
VERTEX
 8
VUE_1
 10
2320.9791250028
 20
10315.5359327016
 0
VERTEX
 8
VUE_1
 10
2893.8676003491
 20
10096.0256896081
 0
SEQEND
 0
POLYLINE
 8
VUE_1
 66
1
 0
VERTEX
 8
VUE_1
 10
2320.9791250028
 20
10315.5359327016
 0
VERTEX
 8
VUE_1
 10
2355.7769984802
 20
10415.8356856657
 0
SEQEND
 0
POLYLINE
 8
VUE_1
 66
1
 0
VERTEX
 8
VUE_1
 10
2928.6654738264
 20
10196.3254425722
 0
VERTEX
 8
VUE_1
 10
2355.7769984802
 20
10415.8356856657
 0
SEQEND
 0
POLYLINE
 8
VUE_1
 66
1
 0
VERTEX
 8
VUE_1
 10
2345.2308450528
 20
10394.7184469565
 0
VERTEX
 8
VUE_1
 10
1632.3583679673
 20
10667.8655209051
 0
SEQEND
 0
CIRCLE
 8
VUE_1
 10
1610.9039277798
 20
10636.4533948787
 40
32.0446871060
 0
POLYLINE
 8
VUE_1
 66
1
 0
VERTEX
 8
VUE_1
 10
2928.6654738264
 20
10196.3254425722
 0
VERTEX
 8
VUE_1
 10
2893.8676003491
 20
10096.0256896081
 0
SEQEND
 0
POLYLINE
 8
VUE_1
 66
1
 0
VERTEX
 8
VUE_1
 10
3590.6578003763
 20
8696.6203993039
 0
VERTEX
 8
VUE_1
 10
3588.7341300306
 20
8694.0811564819
 0
VERTEX
 8
VUE_1
 10
3588.7341300306
 20
8694.0811564819
 0
VERTEX
 8
VUE_1
 10
3583.4072927768
 20
8687.3831249771
 0
VERTEX
 8
VUE_1
 10
3577.8962224430
 20
8680.8211754583
 0
VERTEX
 8
VUE_1
 10
3572.2079752270
 20
8674.3966296188
 0
VERTEX
 8
VUE_1
 10
3566.3496073268
 20
8668.1108091517
 0
VERTEX
 8
VUE_1
 10
3560.3281749402
 20
8661.9650357502
 0
VERTEX
 8
VUE_1
 10
3554.1507342653
 20
8655.9606311076
 0
VERTEX
 8
VUE_1
 10
3547.8243414999
 20
8650.0989169169
 0
VERTEX
 8
VUE_1
 10
3541.3560528421
 20
8644.3812148713
 0
VERTEX
 8
VUE_1
 10
3534.7529244896
 20
8638.8088466640
 0
VERTEX
 8
VUE_1
 10
3528.0220126405
 20
8633.3831339883
 0
VERTEX
 8
VUE_1
 10
3521.1703734927
 20
8628.1053985372
 0
VERTEX
 8
VUE_1
 10
3514.2050632441
 20
8622.9769620040
 0
VERTEX
 8
VUE_1
 10
3507.1331380926
 20
8617.9991460817
 0
VERTEX
 8
VUE_1
 10
3499.9616542362
 20
8613.1732724637
 0
VERTEX
 8
VUE_1
 10
3492.6976678729
 20
8608.5006628431
 0
VERTEX
 8
VUE_1
 10
3485.3482352004
 20
8603.9826389129
 0
VERTEX
 8
VUE_1
 10
3477.9204124169
 20
8599.6205223666
 0
VERTEX
 8
VUE_1
 10
3470.4212557202
 20
8595.4156348971
 0
VERTEX
 8
VUE_1
 10
3462.8578213082
 20
8591.3692981977
 0
VERTEX
 8
VUE_1
 10
3455.2371653788
 20
8587.4828339615
 0
SEQEND
 0
POLYLINE
 8
VUE_1
 66
1
 0
VERTEX
 8
VUE_1
 10
3508.1259632494
 20
8741.9409344441
 0
VERTEX
 8
VUE_1
 10
3506.0457116269
 20
8738.9122267008
 0
VERTEX
 8
VUE_1
 10
3506.0457116269
 20
8738.9122267008
 0
VERTEX
 8
VUE_1
 10
3503.3068433332
 20
8735.0742848962
 0
VERTEX
 8
VUE_1
 10
3500.5049313716
 20
8731.2823501075
 0
VERTEX
 8
VUE_1
 10
3497.6426037407
 20
8727.5349138110
 0
VERTEX
 8
VUE_1
 10
3494.7224884391
 20
8723.8304674825
 0
VERTEX
 8
VUE_1
 10
3491.7472134655
 20
8720.1675025982
 0
VERTEX
 8
VUE_1
 10
3488.7194068186
 20
8716.5445106341
 0
VERTEX
 8
VUE_1
 10
3485.6416964970
 20
8712.9599830664
 0
VERTEX
 8
VUE_1
 10
3482.5167104994
 20
8709.4124113710
 0
VERTEX
 8
VUE_1
 10
3479.3470768245
 20
8705.9002870241
 0
VERTEX
 8
VUE_1
 10
3476.1354234710
 20
8702.4221015017
 0
VERTEX
 8
VUE_1
 10
3472.8843784374
 20
8698.9763462799
 0
VERTEX
 8
VUE_1
 10
3469.5965697226
 20
8695.5615128347
 0
VERTEX
 8
VUE_1
 10
3466.2746253250
 20
8692.1760926423
 0
VERTEX
 8
VUE_1
 10
3462.9211732435
 20
8688.8185771786
 0
VERTEX
 8
VUE_1
 10
3459.5388414766
 20
8685.4874579197
 0
VERTEX
 8
VUE_1
 10
3456.1302580231
 20
8682.1812263418
 0
VERTEX
 8
VUE_1
 10
3452.6980508815
 20
8678.8983739208
 0
VERTEX
 8
VUE_1
 10
3449.2448480507
 20
8675.6373921328
 0
VERTEX
 8
VUE_1
 10
3445.7732775291
 20
8672.3967724540
 0
VERTEX
 8
VUE_1
 10
3442.2859673156
 20
8669.1750063603
 0
VERTEX
 8
VUE_1
 10
3442.2859673156
 20
8669.1750063603
 0
VERTEX
 8
VUE_1
 10
3438.2149098309
 20
8665.4519943497
 0
VERTEX
 8
VUE_1
 10
3434.1254647478
 20
8661.7533737454
 0
VERTEX
 8
VUE_1
 10
3430.0169633266
 20
8658.0800962131
 0
VERTEX
 8
VUE_1
 10
3425.8887368279
 20
8654.4331134182
 0
VERTEX
 8
VUE_1
 10
3421.7401165123
 20
8650.8133770261
 0
VERTEX
 8
VUE_1
 10
3417.5704336403
 20
8647.2218387025
 0
VERTEX
 8
VUE_1
 10
3413.3790194724
 20
8643.6594501127
 0
VERTEX
 8
VUE_1
 10
3409.1652052690
 20
8640.1271629222
 0
VERTEX
 8
VUE_1
 10
3404.9283222908
 20
8636.6259287967
 0
VERTEX
 8
VUE_1
 10
3400.6677017982
 20
8633.1566994014
 0
VERTEX
 8
VUE_1
 10
3396.3826750518
 20
8629.7204264020
 0
VERTEX
 8
VUE_1
 10
3392.0725733121
 20
8626.3180614638
 0
VERTEX
 8
VUE_1
 10
3387.7367278396
 20
8622.9505562525
 0
VERTEX
 8
VUE_1
 10
3383.3744698948
 20
8619.6188624335
 0
VERTEX
 8
VUE_1
 10
3378.9851307382
 20
8616.3239316722
 0
VERTEX
 8
VUE_1
 10
3374.5680416305
 20
8613.0667156342
 0
VERTEX
 8
VUE_1
 10
3370.1225338319
 20
8609.8481659850
 0
VERTEX
 8
VUE_1
 10
3365.6479386032
 20
8606.6692343900
 0
VERTEX
 8
VUE_1
 10
3361.1435872049
 20
8603.5308725148
 0
VERTEX
 8
VUE_1
 10
3356.6088108973
 20
8600.4340320247
 0
SEQEND
 0
POLYLINE
 8
VUE_1
 66
1
 0
VERTEX
 8
VUE_1
 10
3508.6684691550
 20
8742.7307868924
 0
VERTEX
 8
VUE_1
 10
3508.1259632494
 20
8741.9409344441
 0
SEQEND
 0
POLYLINE
 8
VUE_1
 66
1
 0
VERTEX
 8
VUE_1
 10
3582.7566540014
 20
9018.8573540675
 0
VERTEX
 8
VUE_1
 10
3582.6290976095
 20
9014.1053431847
 0
VERTEX
 8
VUE_1
 10
3582.4664510560
 20
9009.3536752030
 0
VERTEX
 8
VUE_1
 10
3582.2689354327
 20
9004.6026410837
 0
VERTEX
 8
VUE_1
 10
3582.0367718312
 20
8999.8525317883
 0
VERTEX
 8
VUE_1
 10
3581.7701813431
 20
8995.1036382781
 0
VERTEX
 8
VUE_1
 10
3581.4693850601
 20
8990.3562515147
 0
VERTEX
 8
VUE_1
 10
3581.1346040739
 20
8985.6106624592
 0
VERTEX
 8
VUE_1
 10
3580.7660594760
 20
8980.8671620732
 0
VERTEX
 8
VUE_1
 10
3580.3639723582
 20
8976.1260413181
 0
VERTEX
 8
VUE_1
 10
3579.9588193075
 20
8971.7168546895
 0
SEQEND
 0
POLYLINE
 8
VUE_1
 66
1
 0
VERTEX
 8
VUE_1
 10
3677.4000244634
 20
9017.8611080626
 0
VERTEX
 8
VUE_1
 10
3677.4176243570
 20
9011.5272916507
 0
VERTEX
 8
VUE_1
 10
3677.4646214368
 20
9005.1854247129
 0
VERTEX
 8
VUE_1
 10
3677.5323118018
 20
8998.8369832894
 0
VERTEX
 8
VUE_1
 10
3677.6119915508
 20
8992.4834434199
 0
VERTEX
 8
VUE_1
 10
3677.6949567828
 20
8986.1262811445
 0
VERTEX
 8
VUE_1
 10
3677.7725035966
 20
8979.7669725030
 0
VERTEX
 8
VUE_1
 10
3677.8359280910
 20
8973.4069935354
 0
VERTEX
 8
VUE_1
 10
3677.8765263649
 20
8967.0478202816
 0
VERTEX
 8
VUE_1
 10
3677.8855945172
 20
8960.6909287815
 0
VERTEX
 8
VUE_1
 10
3677.8544286468
 20
8954.3377950750
 0
VERTEX
 8
VUE_1
 10
3677.7743248525
 20
8947.9898952022
 0
VERTEX
 8
VUE_1
 10
3677.6365792333
 20
8941.6487052028
 0
VERTEX
 8
VUE_1
 10
3677.4324878879
 20
8935.3157011169
 0
VERTEX
 8
VUE_1
 10
3677.1533469153
 20
8928.9923589843
 0
VERTEX
 8
VUE_1
 10
3677.0729194363
 20
8927.5933996058
 0
SEQEND
 0
POLYLINE
 8
VUE_1
 66
1
 0
VERTEX
 8
VUE_1
 10
3404.8556554558
 20
8794.4906360583
 0
VERTEX
 8
VUE_1
 10
3402.4008650551
 20
8791.1219957831
 0
VERTEX
 8
VUE_1
 10
3399.8928399887
 20
8787.7794923374
 0
VERTEX
 8
VUE_1
 10
3397.3380836303
 20
8784.4695488223
 0
VERTEX
 8
VUE_1
 10
3394.7380975360
 20
8781.1917244840
 0
VERTEX
 8
VUE_1
 10
3392.0943832617
 20
8777.9455785690
 0
VERTEX
 8
VUE_1
 10
3389.4084423634
 20
8774.7306703236
 0
VERTEX
 8
VUE_1
 10
3386.6817763970
 20
8771.5465589940
 0
VERTEX
 8
VUE_1
 10
3383.9158869185
 20
8768.3928038266
 0
VERTEX
 8
VUE_1
 10
3381.1122754839
 20
8765.2689640678
 0
VERTEX
 8
VUE_1
 10
3378.2724436491
 20
8762.1745989639
 0
VERTEX
 8
VUE_1
 10
3375.3978929701
 20
8759.1092677612
 0
VERTEX
 8
VUE_1
 10
3372.4901250029
 20
8756.0725297060
 0
VERTEX
 8
VUE_1
 10
3369.5506413034
 20
8753.0639440447
 0
VERTEX
 8
VUE_1
 10
3366.5809434275
 20
8750.0830700235
 0
VERTEX
 8
VUE_1
 10
3363.5825329314
 20
8747.1294668889
 0
VERTEX
 8
VUE_1
 10
3363.5825329314
 20
8747.1294668889
 0
VERTEX
 8
VUE_1
 10
3357.1974826090
 20
8741.0149738243
 0
VERTEX
 8
VUE_1
 10
3350.6954852898
 20
8735.0211810401
 0
VERTEX
 8
VUE_1
 10
3344.0795872660
 20
8729.1504753306
 0
VERTEX
 8
VUE_1
 10
3337.3528348298
 20
8723.4052434902
 0
VERTEX
 8
VUE_1
 10
3330.5182742735
 20
8717.7878723131
 0
VERTEX
 8
VUE_1
 10
3323.5789518892
 20
8712.3007485938
 0
VERTEX
 8
VUE_1
 10
3316.5379139692
 20
8706.9462591265
 0
VERTEX
 8
VUE_1
 10
3309.3982068057
 20
8701.7267907057
 0
VERTEX
 8
VUE_1
 10
3302.1628766909
 20
8696.6447301256
 0
VERTEX
 8
VUE_1
 10
3294.8349699170
 20
8691.7024641807
 0
VERTEX
 8
VUE_1
 10
3287.4175327763
 20
8686.9023796651
 0
VERTEX
 8
VUE_1
 10
3279.9136115609
 20
8682.2468633734
 0
VERTEX
 8
VUE_1
 10
3272.3262525631
 20
8677.7383020998
 0
VERTEX
 8
VUE_1
 10
3264.6585020750
 20
8673.3790826387
 0
VERTEX
 8
VUE_1
 10
3256.9134063890
 20
8669.1715917844
 0
VERTEX
 8
VUE_1
 10
3249.0940117972
 20
8665.1182163312
 0
VERTEX
 8
VUE_1
 10
3241.2033645918
 20
8661.2213430736
 0
VERTEX
 8
VUE_1
 10
3233.2445110651
 20
8657.4833588058
 0
VERTEX
 8
VUE_1
 10
3225.2204975092
 20
8653.9066503222
 0
VERTEX
 8
VUE_1
 10
3217.1343702164
 20
8650.4936044171
 0
SEQEND
 0
POLYLINE
 8
VUE_1
 66
1
 0
VERTEX
 8
VUE_1
 10
3520.1792117495
 20
8859.7575379953
 0
VERTEX
 8
VUE_1
 10
3520.6196964245
 20
8862.8064785126
 0
VERTEX
 8
VUE_1
 10
3520.9845378873
 20
8865.8865144036
 0
VERTEX
 8
VUE_1
 10
3521.2706287777
 20
8868.9922179950
 0
VERTEX
 8
VUE_1
 10
3521.4748617355
 20
8872.1181616133
 0
VERTEX
 8
VUE_1
 10
3521.5941294002
 20
8875.2589175851
 0
VERTEX
 8
VUE_1
 10
3521.6253244116
 20
8878.4090582367
 0
VERTEX
 8
VUE_1
 10
3521.5653394094
 20
8881.5631558949
 0
VERTEX
 8
VUE_1
 10
3521.4110670333
 20
8884.7157828862
 0
VERTEX
 8
VUE_1
 10
3521.1593999231
 20
8887.8615115370
 0
VERTEX
 8
VUE_1
 10
3520.8072307182
 20
8890.9949141739
 0
VERTEX
 8
VUE_1
 10
3520.3514520586
 20
8894.1105631235
 0
VERTEX
 8
VUE_1
 10
3519.7889565839
 20
8897.2030307123
 0
VERTEX
 8
VUE_1
 10
3519.1166369338
 20
8900.2668892668
 0
VERTEX
 8
VUE_1
 10
3518.3313857479
 20
8903.2967111136
 0
VERTEX
 8
VUE_1
 10
3517.4300956661
 20
8906.2870685792
 0
VERTEX
 8
VUE_1
 10
3516.4096593279
 20
8909.2325339902
 0
VERTEX
 8
VUE_1
 10
3515.2669693731
 20
8912.1276796730
 0
VERTEX
 8
VUE_1
 10
3513.9989184414
 20
8914.9670779543
 0
VERTEX
 8
VUE_1
 10
3512.6023991725
 20
8917.7453011605
 0
VERTEX
 8
VUE_1
 10
3511.0743042061
 20
8920.4569216182
 0
SEQEND
 0
POLYLINE
 8
VUE_1
 66
1
 0
VERTEX
 8
VUE_1
 10
3511.0743042061
 20
8920.4569216182
 0
VERTEX
 8
VUE_1
 10
3509.4226189736
 20
8923.0825370742
 0
VERTEX
 8
VUE_1
 10
3507.6439467698
 20
8925.6338507389
 0
VERTEX
 8
VUE_1
 10
3505.7445018384
 20
8928.1077987324
 0
VERTEX
 8
VUE_1
 10
3503.7304984228
 20
8930.5013171748
 0
VERTEX
 8
VUE_1
 10
3501.6081507668
 20
8932.8113421858
 0
VERTEX
 8
VUE_1
 10
3499.3836731139
 20
8935.0348098857
 0
VERTEX
 8
VUE_1
 10
3497.0632797077
 20
8937.1686563943
 0
VERTEX
 8
VUE_1
 10
3494.6531847919
 20
8939.2098178317
 0
VERTEX
 8
VUE_1
 10
3492.1596026099
 20
8941.1552303178
 0
VERTEX
 8
VUE_1
 10
3489.5887474055
 20
8943.0018299727
 0
VERTEX
 8
VUE_1
 10
3486.9468334222
 20
8944.7465529163
 0
VERTEX
 8
VUE_1
 10
3484.2400749037
 20
8946.3863352687
 0
VERTEX
 8
VUE_1
 10
3481.4746860934
 20
8947.9181131498
 0
VERTEX
 8
VUE_1
 10
3478.6568812351
 20
8949.3388226796
 0
VERTEX
 8
VUE_1
 10
3475.7928745723
 20
8950.6453999781
 0
VERTEX
 8
VUE_1
 10
3472.8888803486
 20
8951.8347811654
 0
VERTEX
 8
VUE_1
 10
3469.9511128077
 20
8952.9039023613
 0
VERTEX
 8
VUE_1
 10
3466.9857861930
 20
8953.8496996860
 0
VERTEX
 8
VUE_1
 10
3463.9991147483
 20
8954.6691092594
 0
VERTEX
 8
VUE_1
 10
3460.9973127172
 20
8955.3590672014
 0
SEQEND
 0
POLYLINE
 8
VUE_1
 66
1
 0
VERTEX
 8
VUE_1
 10
3460.9973127172
 20
8955.3590672014
 0
VERTEX
 8
VUE_1
 10
3458.7519825893
 20
8955.7884374864
 0
VERTEX
 8
VUE_1
 10
3456.5019367226
 20
8956.1481704501
 0
VERTEX
 8
VUE_1
 10
3454.2474190253
 20
8956.4423395008
 0
VERTEX
 8
VUE_1
 10
3451.9886734053
 20
8956.6750180467
 0
VERTEX
 8
VUE_1
 10
3449.7259437708
 20
8956.8502794959
 0
VERTEX
 8
VUE_1
 10
3447.4594740299
 20
8956.9721972566
 0
VERTEX
 8
VUE_1
 10
3445.1895080905
 20
8957.0448447371
 0
VERTEX
 8
VUE_1
 10
3442.9162898609
 20
8957.0722953454
 0
VERTEX
 8
VUE_1
 10
3440.6400632490
 20
8957.0586224898
 0
VERTEX
 8
VUE_1
 10
3438.3610721629
 20
8957.0078995785
 0
VERTEX
 8
VUE_1
 10
3436.0795605108
 20
8956.9242000197
 0
VERTEX
 8
VUE_1
 10
3433.7957722006
 20
8956.8115972215
 0
VERTEX
 8
VUE_1
 10
3431.5099511405
 20
8956.6741645921
 0
VERTEX
 8
VUE_1
 10
3429.2223412386
 20
8956.5159755398
 0
VERTEX
 8
VUE_1
 10
3426.9331864029
 20
8956.3411034726
 0
VERTEX
 8
VUE_1
 10
3424.6427305414
 20
8956.1536217988
 0
VERTEX
 8
VUE_1
 10
3422.3512175623
 20
8955.9576039267
 0
VERTEX
 8
VUE_1
 10
3420.0588913737
 20
8955.7571232642
 0
VERTEX
 8
VUE_1
 10
3417.7659958835
 20
8955.5562532198
 0
VERTEX
 8
VUE_1
 10
3415.4727750000
 20
8955.3590672014
 0
SEQEND
 0
POLYLINE
 8
VUE_1
 66
1
 0
VERTEX
 8
VUE_1
 10
3415.4727750000
 20
8955.3590672014
 0
VERTEX
 8
VUE_1
 10
3411.8508201065
 20
8955.0615083868
 0
VERTEX
 8
VUE_1
 10
3408.2295310815
 20
8954.7781644790
 0
VERTEX
 8
VUE_1
 10
3404.6097770539
 20
8954.5038998961
 0
VERTEX
 8
VUE_1
 10
3400.9924271528
 20
8954.2335790559
 0
VERTEX
 8
VUE_1
 10
3397.3783505073
 20
8953.9620663764
 0
VERTEX
 8
VUE_1
 10
3393.7684162463
 20
8953.6842262755
 0
VERTEX
 8
VUE_1
 10
3390.1634934990
 20
8953.3949231711
 0
VERTEX
 8
VUE_1
 10
3386.5644513944
 20
8953.0890214812
 0
VERTEX
 8
VUE_1
 10
3382.9721590616
 20
8952.7613856237
 0
VERTEX
 8
VUE_1
 10
3379.3874856295
 20
8952.4068800165
 0
VERTEX
 8
VUE_1
 10
3375.8113002273
 20
8952.0203690776
 0
VERTEX
 8
VUE_1
 10
3372.2444719839
 20
8951.5967172249
 0
VERTEX
 8
VUE_1
 10
3368.6878700285
 20
8951.1307888763
 0
VERTEX
 8
VUE_1
 10
3365.1423634901
 20
8950.6174484498
 0
VERTEX
 8
VUE_1
 10
3361.6088214977
 20
8950.0515603632
 0
VERTEX
 8
VUE_1
 10
3358.0881131804
 20
8949.4279890346
 0
VERTEX
 8
VUE_1
 10
3354.5811076673
 20
8948.7415988818
 0
VERTEX
 8
VUE_1
 10
3351.0886740873
 20
8947.9872543229
 0
VERTEX
 8
VUE_1
 10
3347.6116815695
 20
8947.1598197756
 0
VERTEX
 8
VUE_1
 10
3344.1509992430
 20
8946.2541596580
 0
SEQEND
 0
POLYLINE
 8
VUE_1
 66
1
 0
VERTEX
 8
VUE_1
 10
3344.1509992430
 20
8946.2541596580
 0
VERTEX
 8
VUE_1
 10
3341.6108161636
 20
8945.5340036875
 0
VERTEX
 8
VUE_1
 10
3339.0803224946
 20
8944.7698742325
 0
VERTEX
 8
VUE_1
 10
3336.5598718910
 20
8943.9630987469
 0
VERTEX
 8
VUE_1
 10
3334.0498180078
 20
8943.1150046842
 0
VERTEX
 8
VUE_1
 10
3331.5505145001
 20
8942.2269194980
 0
VERTEX
 8
VUE_1
 10
3329.0623150227
 20
8941.3001706422
 0
VERTEX
 8
VUE_1
 10
3326.5855732308
 20
8940.3360855702
 0
VERTEX
 8
VUE_1
 10
3324.1206427794
 20
8939.3359917359
 0
VERTEX
 8
VUE_1
 10
3321.6678773235
 20
8938.3012165928
 0
VERTEX
 8
VUE_1
 10
3319.2276305181
 20
8937.2330875946
 0
VERTEX
 8
VUE_1
 10
3316.8002560182
 20
8936.1329321950
 0
VERTEX
 8
VUE_1
 10
3314.3861074788
 20
8935.0020778477
 0
VERTEX
 8
VUE_1
 10
3311.9855385550
 20
8933.8418520063
 0
VERTEX
 8
VUE_1
 10
3309.5989029017
 20
8932.6535821245
 0
VERTEX
 8
VUE_1
 10
3307.2265541740
 20
8931.4385956559
 0
VERTEX
 8
VUE_1
 10
3304.8688460269
 20
8930.1982200542
 0
VERTEX
 8
VUE_1
 10
3302.5261321154
 20
8928.9337827731
 0
VERTEX
 8
VUE_1
 10
3300.1987660945
 20
8927.6466112663
 0
VERTEX
 8
VUE_1
 10
3297.8871016193
 20
8926.3380329873
 0
VERTEX
 8
VUE_1
 10
3295.5914923447
 20
8925.0093753900
 0
SEQEND
 0
POLYLINE
 8
VUE_1
 66
1
 0
VERTEX
 8
VUE_1
 10
3308.0883430091
 20
8840.5643276509
 0
VERTEX
 8
VUE_1
 10
3199.9899631386
 20
8885.5547760351
 0
SEQEND
 0
POLYLINE
 8
VUE_1
 66
1
 0
VERTEX
 8
VUE_1
 10
3001.9217711981
 20
8980.8090820127
 0
VERTEX
 8
VUE_1
 10
3003.7807442689
 20
8966.6887796643
 0
VERTEX
 8
VUE_1
 10
3024.5250658326
 20
8916.6075572031
 0
VERTEX
 8
VUE_1
 10
3057.5245159547
 20
8873.6018365141
 0
SEQEND
 0
POLYLINE
 8
VUE_1
 66
1
 0
VERTEX
 8
VUE_1
 10
3057.5245159547
 20
8873.6018365141
 0
VERTEX
 8
VUE_1
 10
3057.5245159547
 20
8873.6018365141
 0
VERTEX
 8
VUE_1
 10
3100.5302366438
 20
8840.6023863919
 0
VERTEX
 8
VUE_1
 10
3150.6114591050
 20
8819.8580648283
 0
VERTEX
 8
VUE_1
 10
3204.3552307908
 20
8812.7825630561
 0
VERTEX
 8
VUE_1
 10
3258.0990024766
 20
8819.8580648283
 0
VERTEX
 8
VUE_1
 10
3308.1802249379
 20
8840.6023863919
 0
VERTEX
 8
VUE_1
 10
3351.1859456269
 20
8873.6018365141
 0
VERTEX
 8
VUE_1
 10
3384.1853957491
 20
8916.6075572031
 0
VERTEX
 8
VUE_1
 10
3404.9297173127
 20
8966.6887796643
 0
VERTEX
 8
VUE_1
 10
3412.0052190849
 20
9020.4325513502
 0
VERTEX
 8
VUE_1
 10
3404.9297173127
 20
9074.1763230360
 0
VERTEX
 8
VUE_1
 10
3384.1853957491
 20
9124.2575454972
 0
VERTEX
 8
VUE_1
 10
3351.1859456269
 20
9167.2632661862
 0
VERTEX
 8
VUE_1
 10
3308.1802249379
 20
9200.2627163084
 0
VERTEX
 8
VUE_1
 10
3258.0990024766
 20
9221.0070378721
 0
VERTEX
 8
VUE_1
 10
3204.3552307908
 20
9228.0825396443
 0
VERTEX
 8
VUE_1
 10
3150.6114591050
 20
9221.0070378721
 0
VERTEX
 8
VUE_1
 10
3100.5302366438
 20
9200.2627163084
 0
VERTEX
 8
VUE_1
 10
3057.5245159547
 20
9167.2632661862
 0
VERTEX
 8
VUE_1
 10
3024.5250658326
 20
9124.2575454972
 0
VERTEX
 8
VUE_1
 10
3003.7807442689
 20
9074.1763230360
 0
VERTEX
 8
VUE_1
 10
2996.7052424967
 20
9020.4325513502
 0
VERTEX
 8
VUE_1
 10
3001.9217711981
 20
8980.8090820127
 0
SEQEND
 0
POINT
 8
VUE_1
 10
5314.0676910866
 20
9015.5664022949
 0
POLYLINE
 8
VUE_1
 66
1
 0
VERTEX
 8
VUE_1
 10
-114.8284040083
 20
25099.0099376014
 0
VERTEX
 8
VUE_1
 10
-114.8284040083
 20
283.1413820045
 0
VERTEX
 8
VUE_1
 10
19816.0266563924
 20
283.1413820045
 0
VERTEX
 8
VUE_1
 10
19816.0266563924
 20
25099.0099376014
 0
VERTEX
 8
VUE_1
 10
-114.8284040083
 20
25099.0099376014
 0
SEQEND
 0
TEXT
 8
VUE_1
 62
4
 10
12691.3076111898
 20
2030.1769694819
 40
484.9379882812
 41
1.0000000000
 1
Fieseler Fi156
 7
STANDARD
 0
POLYLINE
 8
VUE_1
 66
1
 0
VERTEX
 8
VUE_1
 10
15646.1529812070
 20
22358.4277075514
 0
VERTEX
 8
VUE_1
 10
16239.1921003977
 20
22362.0110254922
 0
SEQEND
 0
POLYLINE
 8
VUE_1
 66
1
 0
VERTEX
 8
VUE_1
 10
16300.5158558767
 20
22362.3815617791
 0
VERTEX
 8
VUE_1
 10
17147.7858162764
 20
22367.5010177332
 0
SEQEND
 0
CIRCLE
 8
VUE_1
 10
16092.2203886019
 20
21209.1020150536
 40
50.1195420736
 0
POLYLINE
 8
VUE_1
 66
1
 0
VERTEX
 8
VUE_1
 10
1369.1472279715
 20
11200.0944279265
 0
VERTEX
 8
VUE_1
 10
1369.1472279715
 20
6797.9170784546
 0
SEQEND
 0
POLYLINE
 8
VUE_1
 66
1
 0
VERTEX
 8
VUE_1
 10
4417.9903306795
 20
9812.2730484463
 0
VERTEX
 8
VUE_1
 10
4234.4866461038
 20
9619.5150381003
 0
SEQEND
 0
POINT
 8
VUE_1
 10
11048.0712132935
 20
16140.5656829323
 0
POINT
 8
VUE_1
 10
11048.0712132935
 20
1890.5672682991
 0
TEXT
 8
VUE_1
 62
4
 10
14896.8443874418
 20
1428.1173277576
 40
484.9379882812
 41
1.0000000000
 1
Storch
 7
STANDARD
 0
TEXT
 8
VUE_1
 62
4
 10
12653.6619646668
 20
891.0150270995
 40
300.0000000000
 41
0.4772727273
 1
Echelle 1/1
 7
STANDARD
 0
TEXT
 8
VUE_1
 62
4
 10
15429.3969652285
 20
395.0166887687
 40
300.0000000000
 41
0.5195652174
 1
Risbourg le 25 dec 2001
 7
STANDARD
 0
POLYLINE
 8
VUE_1
 66
1
 0
VERTEX
 8
VUE_1
 10
17576.3198098669
 20
9025.4531512794
 0
VERTEX
 8
VUE_1
 10
17576.3198098669
 20
9005.1432225717
 0
SEQEND
 0
ARC
 8
VUE_1
 10
16092.2203886019
 20
21209.1020150536
 40
135.0000000000
 50
318.3608900460
 51
250.4479537831
 0
POLYLINE
 8
VUE_1
 66
1
 0
VERTEX
 8
VUE_1
 10
10048.2557434309
 20
20592.9583514070
 0
VERTEX
 8
VUE_1
 10
10016.4756414943
 20
20596.7564611508
 0
SEQEND
 0
POLYLINE
 8
VUE_1
 66
1
 0
VERTEX
 8
VUE_1
 10
19421.8711278060
 20
1848.8265393441
 0
VERTEX
 8
VUE_1
 10
19421.8711278060
 20
283.1413820045
 0
SEQEND
 0
POLYLINE
 8
VUE_1
 66
1
 0
VERTEX
 8
VUE_1
 10
19816.0266563924
 20
1848.8265393441
 0
VERTEX
 8
VUE_1
 10
19816.0266563924
 20
283.1413820045
 0
SEQEND
 0
POLYLINE
 8
VUE_1
 66
1
 0
VERTEX
 8
VUE_1
 10
19027.7155992197
 20
1848.8265393441
 0
VERTEX
 8
VUE_1
 10
19816.0266563924
 20
1848.8265393441
 0
SEQEND
 0
POLYLINE
 8
VUE_1
 66
1
 0
VERTEX
 8
VUE_1
 10
19027.7155992197
 20
283.1413820045
 0
VERTEX
 8
VUE_1
 10
19027.7155992197
 20
1848.8265393441
 0
SEQEND
 0
POLYLINE
 8
VUE_1
 66
1
 0
VERTEX
 8
VUE_1
 10
19816.0266563924
 20
283.1413820045
 0
VERTEX
 8
VUE_1
 10
19027.7155992197
 20
283.1413820045
 0
SEQEND
 0
POLYLINE
 8
VUE_1
 66
1
 0
VERTEX
 8
VUE_1
 10
19027.7155992197
 20
1457.4052500092
 0
VERTEX
 8
VUE_1
 10
19816.0266563924
 20
1457.4052500092
 0
SEQEND
 0
POLYLINE
 8
VUE_1
 66
1
 0
VERTEX
 8
VUE_1
 10
19027.7155992197
 20
1065.9839606743
 0
VERTEX
 8
VUE_1
 10
19816.0266563924
 20
1065.9839606743
 0
SEQEND
 0
POLYLINE
 8
VUE_1
 66
1
 0
VERTEX
 8
VUE_1
 10
19027.7155992197
 20
674.5626713394
 0
VERTEX
 8
VUE_1
 10
19816.0266563924
 20
674.5626713394
 0
SEQEND
 0
TEXT
 8
VUE_1
 62
4
 10
19127.7392890449
 20
1532.3768446253
 40
250.0000000000
 41
0.7500000000
 1
A
 7
STANDARD
 0
POLYLINE
 8
VUE_1
 66
1
 0
VERTEX
 8
VUE_1
 10
11753.5309945901
 20
13999.7545144845
 0
VERTEX
 8
VUE_1
 10
11753.5309945901
 20
9879.1359763510
 0
SEQEND
 0
POINT
 8
VUE_1
 10
9913.5310009685
 20
22369.0026967188
 0
POLYLINE
 8
VUE_1
 66
1
 6
PHANTOM
 0
VERTEX
 8
VUE_1
 10
11753.5309945476
 20
22213.0378801888
 0
VERTEX
 8
VUE_1
 10
9913.5310009685
 20
22347.0026967188
 0
SEQEND
 0
POLYLINE
 8
VUE_1
 66
1
 62
2
 0
VERTEX
 8
VUE_1
 10
10143.5309945901
 20
22271.0921049848
 0
VERTEX
 8
VUE_1
 10
10139.5614368225
 20
22271.1089987268
 0
VERTEX
 8
VUE_1
 10
10135.5933112625
 20
22271.1522824956
 0
VERTEX
 8
VUE_1
 10
10131.6264336863
 20
22271.2203418263
 0
VERTEX
 8
VUE_1
 10
10127.6606198704
 20
22271.3115622548
 0
VERTEX
 8
VUE_1
 10
10123.6956855910
 20
22271.4243293164
 0
VERTEX
 8
VUE_1
 10
10119.7314466242
 20
22271.5570285468
 0
VERTEX
 8
VUE_1
 10
10115.7677187466
 20
22271.7080454817
 0
VERTEX
 8
VUE_1
 10
10111.8043177343
 20
22271.8757656564
 0
VERTEX
 8
VUE_1
 10
10107.8410593636
 20
22272.0585746067
 0
VERTEX
 8
VUE_1
 10
10103.8777594108
 20
22272.2548578679
 0
VERTEX
 8
VUE_1
 10
10099.9142336522
 20
22272.4630009756
 0
VERTEX
 8
VUE_1
 10
10095.9502978641
 20
22272.6813894656
 0
VERTEX
 8
VUE_1
 10
10091.9857678228
 20
22272.9084088732
 0
VERTEX
 8
VUE_1
 10
10088.0204593046
 20
22273.1424447341
 0
VERTEX
 8
VUE_1
 10
10084.0541880857
 20
22273.3818825837
 0
VERTEX
 8
VUE_1
 10
10080.0867699425
 20
22273.6251079577
 0
VERTEX
 8
VUE_1
 10
10076.1180206511
 20
22273.8705063916
 0
VERTEX
 8
VUE_1
 10
10072.1477559881
 20
22274.1164634209
 0
VERTEX
 8
VUE_1
 10
10068.1757917295
 20
22274.3613645814
 0
VERTEX
 8
VUE_1
 10
10064.2019436517
 20
22274.6035954084
 0
VERTEX
 8
VUE_1
 10
10059.1559501291
 20
22274.9063949265
 0
VERTEX
 8
VUE_1
 10
10054.1079853730
 20
22275.2095423206
 0
VERTEX
 8
VUE_1
 10
10049.0594090639
 20
22275.5202868188
 0
VERTEX
 8
VUE_1
 10
10044.0115808822
 20
22275.8458776494
 0
VERTEX
 8
VUE_1
 10
10038.9658605085
 20
22276.1935640408
 0
VERTEX
 8
VUE_1
 10
10033.9236076231
 20
22276.5705952215
 0
VERTEX
 8
VUE_1
 10
10028.8861819067
 20
22276.9842204196
 0
VERTEX
 8
VUE_1
 10
10023.8549430396
 20
22277.4416888636
 0
VERTEX
 8
VUE_1
 10
10018.8312507024
 20
22277.9502497817
 0
VERTEX
 8
VUE_1
 10
10013.8164645755
 20
22278.5171524026
 0
VERTEX
 8
VUE_1
 10
10008.8119443395
 20
22279.1496459541
 0
VERTEX
 8
VUE_1
 10
10003.8190496747
 20
22279.8549796650
 0
VERTEX
 8
VUE_1
 10
9998.8391402618
 20
22280.6404027635
 0
VERTEX
 8
VUE_1
 10
9993.8735757812
 20
22281.5131644779
 0
VERTEX
 8
VUE_1
 10
9988.9237159133
 20
22282.4805140364
 0
VERTEX
 8
VUE_1
 10
9983.9909203386
 20
22283.5497006678
 0
VERTEX
 8
VUE_1
 10
9979.0765487377
 20
22284.7279735999
 0
VERTEX
 8
VUE_1
 10
9974.1819607910
 20
22286.0225820615
 0
VERTEX
 8
VUE_1
 10
9969.3085161790
 20
22287.4407752806
 0
VERTEX
 8
VUE_1
 10
9964.4575745821
 20
22288.9898024856
 0
VERTEX
 8
VUE_1
 10
9962.5831675726
 20
22289.6274775847
 0
VERTEX
 8
VUE_1
 10
9960.7144232744
 20
22290.2877833542
 0
VERTEX
 8
VUE_1
 10
9958.8534161336
 20
22290.9725867068
 0
VERTEX
 8
VUE_1
 10
9957.0022205960
 20
22291.6837545548
 0
VERTEX
 8
VUE_1
 10
9955.1629111073
 20
22292.4231538105
 0
VERTEX
 8
VUE_1
 10
9953.3375621134
 20
22293.1926513859
 0
VERTEX
 8
VUE_1
 10
9951.5282480603
 20
22293.9941141936
 0
VERTEX
 8
VUE_1
 10
9949.7370433936
 20
22294.8294091458
 0
VERTEX
 8
VUE_1
 10
9947.9660225594
 20
22295.7004031548
 0
VERTEX
 8
VUE_1
 10
9946.2172600034
 20
22296.6089631329
 0
VERTEX
 8
VUE_1
 10
9944.4928301714
 20
22297.5569559926
 0
VERTEX
 8
VUE_1
 10
9942.7948075094
 20
22298.5462486459
 0
VERTEX
 8
VUE_1
 10
9941.1252664632
 20
22299.5787080052
 0
VERTEX
 8
VUE_1
 10
9939.4862814786
 20
22300.6562009828
 0
VERTEX
 8
VUE_1
 10
9937.8799270014
 20
22301.7805944911
 0
VERTEX
 8
VUE_1
 10
9936.3082774776
 20
22302.9537554421
 0
VERTEX
 8
VUE_1
 10
9934.7734073529
 20
22304.1775507486
 0
VERTEX
 8
VUE_1
 10
9933.2773910733
 20
22305.4538473225
 0
VERTEX
 8
VUE_1
 10
9931.8223030845
 20
22306.7845120763
 0
VERTEX
 8
VUE_1
 10
9930.4102178324
 20
22308.1714119222
 0
VERTEX
 8
VUE_1
 10
9928.9310865416
 20
22309.7386486795
 0
VERTEX
 8
VUE_1
 10
9927.5068645479
 20
22311.3699782061
 0
VERTEX
 8
VUE_1
 10
9926.1395436430
 20
22313.0612855224
 0
VERTEX
 8
VUE_1
 10
9924.8311156186
 20
22314.8084556492
 0
VERTEX
 8
VUE_1
 10
9923.5835722662
 20
22316.6073736071
 0
VERTEX
 8
VUE_1
 10
9922.3989053777
 20
22318.4539244166
 0
VERTEX
 8
VUE_1
 10
9921.2791067445
 20
22320.3439930984
 0
VERTEX
 8
VUE_1
 10
9920.2261681585
 20
22322.2734646731
 0
VERTEX
 8
VUE_1
 10
9919.2420814113
 20
22324.2382241613
 0
VERTEX
 8
VUE_1
 10
9918.3288382946
 20
22326.2341565837
 0
VERTEX
 8
VUE_1
 10
9917.4884305999
 20
22328.2571469608
 0
VERTEX
 8
VUE_1
 10
9916.7228501190
 20
22330.3030803132
 0
VERTEX
 8
VUE_1
 10
9916.0340886436
 20
22332.3678416616
 0
VERTEX
 8
VUE_1
 10
9915.4241379653
 20
22334.4473160265
 0
VERTEX
 8
VUE_1
 10
9914.8949898758
 20
22336.5373884287
 0
VERTEX
 8
VUE_1
 10
9914.4486361668
 20
22338.6339438887
 0
VERTEX
 8
VUE_1
 10
9914.0870686299
 20
22340.7328674269
 0
VERTEX
 8
VUE_1
 10
9913.8122790568
 20
22342.8300440644
 0
VERTEX
 8
VUE_1
 10
9913.6262592391
 20
22344.9213588214
 0
VERTEX
 8
VUE_1
 10
9913.5310009685
 20
22347.0026967188
 0
VERTEX
 8
VUE_1
 10
9913.6086871530
 20
22351.0269568522
 0
VERTEX
 8
VUE_1
 10
9914.0218663556
 20
22354.9969481260
 0
VERTEX
 8
VUE_1
 10
9914.7524641495
 20
22358.9121185135
 0
VERTEX
 8
VUE_1
 10
9915.7824061078
 20
22362.7719159873
 0
VERTEX
 8
VUE_1
 10
9917.0936178038
 20
22366.5757885204
 0
VERTEX
 8
VUE_1
 10
9918.6680248105
 20
22370.3231840859
 0
VERTEX
 8
VUE_1
 10
9920.4875527013
 20
22374.0135506566
 0
VERTEX
 8
VUE_1
 10
9922.5341270491
 20
22377.6463362053
 0
VERTEX
 8
VUE_1
 10
9924.7896734273
 20
22381.2209887052
 0
VERTEX
 8
VUE_1
 10
9927.2361174090
 20
22384.7369561293
 0
VERTEX
 8
VUE_1
 10
9929.8553845673
 20
22388.1936864501
 0
VERTEX
 8
VUE_1
 10
9932.6294004755
 20
22391.5906276411
 0
VERTEX
 8
VUE_1
 10
9935.5400907066
 20
22394.9272276748
 0
VERTEX
 8
VUE_1
 10
9938.5693808340
 20
22398.2029345244
 0
VERTEX
 8
VUE_1
 10
9941.6991964306
 20
22401.4171961627
 0
VERTEX
 8
VUE_1
 10
9944.9114630698
 20
22404.5694605627
 0
VERTEX
 8
VUE_1
 10
9948.1881063247
 20
22407.6591756972
 0
VERTEX
 8
VUE_1
 10
9951.5110517685
 20
22410.6857895393
 0
VERTEX
 8
VUE_1
 10
9954.8622249743
 20
22413.6487500620
 0
VERTEX
 8
VUE_1
 10
9958.2235515153
 20
22416.5475052381
 0
VERTEX
 8
VUE_1
 10
9961.3186218619
 20
22419.1629388861
 0
VERTEX
 8
VUE_1
 10
9964.4086114564
 20
22421.7243110316
 0
VERTEX
 8
VUE_1
 10
9967.4951726733
 20
22424.2326055638
 0
VERTEX
 8
VUE_1
 10
9970.5799578870
 20
22426.6888063719
 0
VERTEX
 8
VUE_1
 10
9973.6646194719
 20
22429.0938973453
 0
VERTEX
 8
VUE_1
 10
9976.7508098025
 20
22431.4488623731
 0
VERTEX
 8
VUE_1
 10
9979.8401812533
 20
22433.7546853446
 0
VERTEX
 8
VUE_1
 10
9982.9343861986
 20
22436.0123501492
 0
VERTEX
 8
VUE_1
 10
9986.0350770130
 20
22438.2228406762
 0
VERTEX
 8
VUE_1
 10
9989.1439060708
 20
22440.3871408146
 0
VERTEX
 8
VUE_1
 10
9992.2625257466
 20
22442.5062344539
 0
VERTEX
 8
VUE_1
 10
9995.3925884148
 20
22444.5811054831
 0
VERTEX
 8
VUE_1
 10
9998.5357464498
 20
22446.6127377916
 0
VERTEX
 8
VUE_1
 10
10001.6936522261
 20
22448.6021152688
 0
VERTEX
 8
VUE_1
 10
10004.8679581181
 20
22450.5502218037
 0
VERTEX
 8
VUE_1
 10
10008.0603165002
 20
22452.4580412859
 0
VERTEX
 8
VUE_1
 10
10011.2723797470
 20
22454.3265576043
 0
VERTEX
 8
VUE_1
 10
10014.5058002329
 20
22456.1567546484
 0
VERTEX
 8
VUE_1
 10
10017.7622303323
 20
22457.9496163072
 0
VERTEX
 8
VUE_1
 10
10021.0433224197
 20
22459.7061264703
 0
VERTEX
 8
VUE_1
 10
10027.1495459171
 20
22462.8465894031
 0
VERTEX
 8
VUE_1
 10
10033.3405809352
 20
22465.8699535706
 0
VERTEX
 8
VUE_1
 10
10039.6121060061
 20
22468.7789186818
 0
VERTEX
 8
VUE_1
 10
10045.9597996620
 20
22471.5761844455
 0
VERTEX
 8
VUE_1
 10
10052.3793404352
 20
22474.2644505708
 0
VERTEX
 8
VUE_1
 10
10058.8664068578
 20
22476.8464167665
 0
VERTEX
 8
VUE_1
 10
10065.4166774621
 20
22479.3247827419
 0
VERTEX
 8
VUE_1
 10
10072.0258307803
 20
22481.7022482056
 0
VERTEX
 8
VUE_1
 10
10078.6895453445
 20
22483.9815128670
 0
VERTEX
 8
VUE_1
 10
10085.4034996870
 20
22486.1652764347
 0
VERTEX
 8
VUE_1
 10
10092.1633723400
 20
22488.2562386177
 0
VERTEX
 8
VUE_1
 10
10098.9648418357
 20
22490.2570991252
 0
VERTEX
 8
VUE_1
 10
10105.8035867063
 20
22492.1705576660
 0
VERTEX
 8
VUE_1
 10
10112.6752854840
 20
22493.9993139489
 0
VERTEX
 8
VUE_1
 10
10119.5756167010
 20
22495.7460676834
 0
VERTEX
 8
VUE_1
 10
10126.5002588896
 20
22497.4135185780
 0
VERTEX
 8
VUE_1
 10
10133.4448905818
 20
22499.0043663418
 0
VERTEX
 8
VUE_1
 10
10140.4051903100
 20
22500.5213106837
 0
VERTEX
 8
VUE_1
 10
10147.3768366064
 20
22501.9670513128
 0
VERTEX
 8
VUE_1
 10
10154.3555080031
 20
22503.3442879381
 0
VERTEX
 8
VUE_1
 10
10168.3220844299
 20
22505.9018306800
 0
VERTEX
 8
VUE_1
 10
10182.2986334918
 20
22508.2046413904
 0
VERTEX
 8
VUE_1
 10
10196.2843135684
 20
22510.2611985305
 0
VERTEX
 8
VUE_1
 10
10210.2782830393
 20
22512.0799805616
 0
VERTEX
 8
VUE_1
 10
10224.2797002840
 20
22513.6694659448
 0
VERTEX
 8
VUE_1
 10
10238.2877236823
 20
22515.0381331415
 0
VERTEX
 8
VUE_1
 10
10252.3015116137
 20
22516.1944606124
 0
VERTEX
 8
VUE_1
 10
10266.3202224577
 20
22517.1469268192
 0
VERTEX
 8
VUE_1
 10
10280.3430145941
 20
22517.9040102227
 0
VERTEX
 8
VUE_1
 10
10294.3690464024
 20
22518.4741892843
 0
VERTEX
 8
VUE_1
 10
10308.3974762621
 20
22518.8659424651
 0
VERTEX
 8
VUE_1
 10
10322.4274625530
 20
22519.0877482262
 0
VERTEX
 8
VUE_1
 10
10336.4581636545
 20
22519.1480850291
 0
VERTEX
 8
VUE_1
 10
10350.4887379464
 20
22519.0554313346
 0
VERTEX
 8
VUE_1
 10
10364.5183438082
 20
22518.8182656040
 0
VERTEX
 8
VUE_1
 10
10378.5461396194
 20
22518.4450662985
 0
VERTEX
 8
VUE_1
 10
10392.5712837598
 20
22517.9443118794
 0
VERTEX
 8
VUE_1
 10
10406.5929346089
 20
22517.3244808078
 0
VERTEX
 8
VUE_1
 10
10420.6102505462
 20
22516.5940515447
 0
VERTEX
 8
VUE_1
 10
10434.6223899515
 20
22515.7615025516
 0
VERTEX
 8
VUE_1
 10
10441.2062618985
 20
22515.3370581984
 0
VERTEX
 8
VUE_1
 10
10447.7886192420
 20
22514.8912076638
 0
VERTEX
 8
VUE_1
 10
10454.3692768734
 20
22514.4232314449
 0
VERTEX
 8
VUE_1
 10
10460.9480496841
 20
22513.9324100386
 0
VERTEX
 8
VUE_1
 10
10467.5247525656
 20
22513.4180239415
 0
VERTEX
 8
VUE_1
 10
10474.0992004092
 20
22512.8793536505
 0
VERTEX
 8
VUE_1
 10
10480.6712081062
 20
22512.3156796627
 0
VERTEX
 8
VUE_1
 10
10487.2405905481
 20
22511.7262824748
 0
VERTEX
 8
VUE_1
 10
10493.8071626263
 20
22511.1104425835
 0
VERTEX
 8
VUE_1
 10
10500.3707392321
 20
22510.4674404859
 0
VERTEX
 8
VUE_1
 10
10506.9311352569
 20
22509.7965566788
 0
VERTEX
 8
VUE_1
 10
10513.4881655922
 20
22509.0970716588
 0
VERTEX
 8
VUE_1
 10
10520.0416451292
 20
22508.3682659233
 0
VERTEX
 8
VUE_1
 10
10526.5913887594
 20
22507.6094199687
 0
VERTEX
 8
VUE_1
 10
10533.1372113742
 20
22506.8198142918
 0
VERTEX
 8
VUE_1
 10
10539.6789278650
 20
22505.9987293899
 0
VERTEX
 8
VUE_1
 10
10546.2163531231
 20
22505.1454457594
 0
VERTEX
 8
VUE_1
 10
10552.7493020399
 20
22504.2592438975
 0
VERTEX
 8
VUE_1
 10
10559.2775895068
 20
22503.3394043008
 0
VERTEX
 8
VUE_1
 10
10565.8010304152
 20
22502.3852074664
 0
VERTEX
 8
VUE_1
 10
10701.5109171782
 20
22482.7240577940
 0
VERTEX
 8
VUE_1
 10
10827.6299992230
 20
22453.9516436392
 0
VERTEX
 8
VUE_1
 10
10934.5674718312
 20
22424.6996892487
 0
VERTEX
 8
VUE_1
 10
11753.5309945476
 20
22213.0378801888
 0
VERTEX
 8
VUE_1
 10
10143.5309945901
 20
22271.0921049848
 0
SEQEND
 0
POLYLINE
 8
VUE_1
 66
1
 0
VERTEX
 8
VUE_1
 10
11753.5309945901
 20
8151.9969748804
 0
VERTEX
 8
VUE_1
 10
11753.5309945901
 20
4031.3784367469
 0
SEQEND
 0
POLYLINE
 8
VUE_1
 66
1
 0
VERTEX
 8
VUE_1
 10
9793.8981802215
 20
15716.6789053735
 0
VERTEX
 8
VUE_1
 10
9793.8981802215
 20
9841.5641428863
 0
SEQEND
 0
POLYLINE
 8
VUE_1
 66
1
 0
VERTEX
 8
VUE_1
 10
9793.8981802215
 20
8189.5688083451
 0
VERTEX
 8
VUE_1
 10
9793.8981802215
 20
2314.4540458579
 0
SEQEND
 0
POLYLINE
 8
VUE_1
 66
1
 0
VERTEX
 8
VUE_1
 10
11029.4592074796
 20
22297.8561353746
 0
VERTEX
 8
VUE_1
 10
11024.9623471032
 20
22273.2638958108
 0
SEQEND
 0
POLYLINE
 8
VUE_1
 66
1
 62
5
 0
VERTEX
 8
VUE_1
 10
11028.1933205994
 20
22272.8882053361
 0
VERTEX
 8
VUE_1
 10
10152.1933101637
 20
22317.3018559101
 0
SEQEND
 0
POLYLINE
 8
VUE_1
 66
1
 62
5
 0
VERTEX
 8
VUE_1
 10
11029.4592074796
 20
22297.8561353746
 0
VERTEX
 8
VUE_1
 10
10153.4591962992
 20
22342.2697859864
 0
SEQEND
 0
POLYLINE
 8
VUE_1
 66
1
 0
VERTEX
 8
VUE_1
 10
9935.1866558997
 20
20990.5334130140
 0
VERTEX
 8
VUE_1
 10
9765.4337701036
 20
19994.8481552045
 0
SEQEND
 0
POLYLINE
 8
VUE_1
 66
1
 62
5
 0
VERTEX
 8
VUE_1
 10
10153.5309945770
 20
21690.4301737425
 0
VERTEX
 8
VUE_1
 10
10988.9622501786
 20
21695.4417589592
 0
SEQEND
 0
POLYLINE
 8
VUE_1
 66
1
 62
5
 0
VERTEX
 8
VUE_1
 10
10153.5309945820
 20
21670.4298138898
 0
VERTEX
 8
VUE_1
 10
10987.0533831627
 20
21675.4299481945
 0
SEQEND
 0
POINT
 8
VUE_1
 10
10143.5309946205
 20
21680.3700058140
 0
POLYLINE
 8
VUE_1
 66
1
 62
5
 0
VERTEX
 8
VUE_1
 10
9673.5309929816
 20
21515.0191022664
 0
VERTEX
 8
VUE_1
 10
9673.5309929816
 20
21028.9909948454
 0
SEQEND
 0
POLYLINE
 8
VUE_1
 66
1
 62
5
 0
VERTEX
 8
VUE_1
 10
9653.5309929816
 20
21538.3256984139
 0
VERTEX
 8
VUE_1
 10
9653.5309929816
 20
21029.9962856880
 0
SEQEND
 0
POLYLINE
 8
VUE_1
 66
1
 62
5
 0
VERTEX
 8
VUE_1
 10
9673.5309929816
 20
21798.1606907237
 0
VERTEX
 8
VUE_1
 10
9673.5309929816
 20
21570.0766349914
 0
SEQEND
 0
POLYLINE
 8
VUE_1
 66
1
 62
5
 0
VERTEX
 8
VUE_1
 10
10150.6516222693
 20
22170.4215374306
 0
VERTEX
 8
VUE_1
 10
11000.7666604589
 20
22175.5212077256
 0
SEQEND
 0
POLYLINE
 8
VUE_1
 66
1
 62
5
 0
VERTEX
 8
VUE_1
 10
10150.5556431924
 20
22186.4212495536
 0
VERTEX
 8
VUE_1
 10
11002.6503766847
 20
22191.5327956452
 0
SEQEND
 0
POINT
 8
VUE_1
 10
10143.5309945693
 20
22330.2570950600
 0
CIRCLE
 8
VUE_1
 10
10143.5309945693
 20
22330.2570950600
 40
15.5844131389
 0
POLYLINE
 8
VUE_1
 66
1
 62
5
 0
VERTEX
 8
VUE_1
 10
10159.3409604420
 20
22327.7984411388
 0
VERTEX
 8
VUE_1
 10
9950.9966217724
 20
20988.0747590930
 0
SEQEND
 0
POLYLINE
 8
VUE_1
 66
1
 62
5
 0
VERTEX
 8
VUE_1
 10
10127.7210286966
 20
22332.7157489812
 0
VERTEX
 8
VUE_1
 10
9919.3766900270
 20
20992.9920669353
 0
SEQEND
 0
POINT
 8
VUE_1
 10
10143.5309945485
 20
21310.3633485366
 0
POINT
 8
VUE_1
 10
12021.2513335826
 20
21530.6825346332
 0
POINT
 8
VUE_1
 10
11753.5309945476
 20
22213.0378801888
 0
POLYLINE
 8
VUE_1
 66
1
 62
5
 0
VERTEX
 8
VUE_1
 10
10133.5309960006
 20
22318.3041054126
 0
VERTEX
 8
VUE_1
 10
10133.5309945306
 20
21687.6130526096
 0
SEQEND
 0
POINT
 8
VUE_1
 10
10923.5169605416
 20
21315.0423285367
 0
POINT
 8
VUE_1
 10
12083.2646465548
 20
22062.0127377876
 0
POINT
 8
VUE_1
 10
11027.2107772914
 20
22285.5600155928
 0
POLYLINE
 8
VUE_1
 66
1
 0
VERTEX
 8
VUE_1
 10
11027.2107772914
 20
22285.5600155928
 0
VERTEX
 8
VUE_1
 10
12083.2646465548
 20
22062.0127377876
 0
SEQEND
 0
POLYLINE
 8
VUE_1
 66
1
 62
5
 0
VERTEX
 8
VUE_1
 10
11030.3171680869
 20
22300.2348353948
 0
VERTEX
 8
VUE_1
 10
12086.3710373503
 20
22076.6875575898
 0
SEQEND
 0
POLYLINE
 8
VUE_1
 66
1
 62
5
 0
VERTEX
 8
VUE_1
 10
11024.1043864959
 20
22270.8851957906
 0
VERTEX
 8
VUE_1
 10
12067.6381143980
 20
22049.9882027868
 0
SEQEND
 0
POINT
 8
VUE_1
 10
11511.3348533766
 20
21608.3649540664
 0
POLYLINE
 8
VUE_1
 66
1
 0
VERTEX
 8
VUE_1
 10
11569.6459534796
 20
22170.7364156308
 0
VERTEX
 8
VUE_1
 10
11511.3348533766
 20
21608.3649540664
 0
SEQEND
 0
POLYLINE
 8
VUE_1
 66
1
 62
5
 0
VERTEX
 8
VUE_1
 10
12083.2646465548
 20
22062.0127377876
 0
VERTEX
 8
VUE_1
 10
11002.6503766847
 20
22191.5327956452
 0
SEQEND
 0
POLYLINE
 8
VUE_1
 66
1
 62
5
 0
VERTEX
 8
VUE_1
 10
11575.4685803183
 20
22154.1714862010
 0
VERTEX
 8
VUE_1
 10
11572.2634569419
 20
22123.2602203440
 0
SEQEND
 0
POLYLINE
 8
VUE_1
 66
1
 62
5
 0
VERTEX
 8
VUE_1
 10
11560.7120505657
 20
22157.2951734976
 0
VERTEX
 8
VUE_1
 10
11557.3681545556
 20
22125.0455386399
 0
SEQEND
 0
POLYLINE
 8
VUE_1
 66
1
 62
5
 0
VERTEX
 8
VUE_1
 10
11555.7052034525
 20
22109.0074902966
 0
VERTEX
 8
VUE_1
 10
11497.5857170523
 20
21548.4840144146
 0
SEQEND
 0
POLYLINE
 8
VUE_1
 66
1
 62
5
 0
VERTEX
 8
VUE_1
 10
11000.7666604589
 20
22175.5212077256
 0
VERTEX
 8
VUE_1
 10
12081.3809303289
 20
22046.0011498680
 0
SEQEND
 0
POINT
 8
VUE_1
 10
11993.4977087628
 20
21321.4609293059
 0
POLYLINE
 8
VUE_1
 66
1
 0
VERTEX
 8
VUE_1
 10
11944.6097879419
 20
20918.1494310260
 0
VERTEX
 8
VUE_1
 10
12083.2646465548
 20
22062.0127377876
 0
SEQEND
 0
POLYLINE
 8
VUE_1
 66
1
 62
5
 0
VERTEX
 8
VUE_1
 10
11945.4033540452
 20
21049.3476844460
 0
VERTEX
 8
VUE_1
 10
12066.4311834868
 20
22047.7929937572
 0
SEQEND
 0
POLYLINE
 8
VUE_1
 66
1
 62
5
 0
VERTEX
 8
VUE_1
 10
11975.6953070869
 20
21049.9446005083
 0
VERTEX
 8
VUE_1
 10
12097.1010112430
 20
22051.5072691740
 0
SEQEND
 0
POINT
 8
VUE_1
 10
11958.7263789980
 20
21034.6073084284
 0
POLYLINE
 8
VUE_1
 66
1
 0
VERTEX
 8
VUE_1
 10
11958.7263789980
 20
21034.6073084284
 0
VERTEX
 8
VUE_1
 10
16334.1051005682
 20
21589.0269349472
 0
SEQEND
 0
POLYLINE
 8
VUE_1
 66
1
 0
VERTEX
 8
VUE_1
 10
11987.5455046278
 20
21048.7324539488
 0
VERTEX
 8
VUE_1
 10
16331.9911556128
 20
21599.2324422985
 0
SEQEND
 0
POLYLINE
 8
VUE_1
 66
1
 0
VERTEX
 8
VUE_1
 10
11988.0606563671
 20
21022.5898297444
 0
VERTEX
 8
VUE_1
 10
16335.2595721838
 20
21573.4386939645
 0
SEQEND
 0
POINT
 8
VUE_1
 10
10885.2697572818
 20
21013.4543804984
 0
POLYLINE
 8
VUE_1
 66
1
 0
VERTEX
 8
VUE_1
 10
10885.2697572818
 20
21013.4543804984
 0
VERTEX
 8
VUE_1
 10
11958.7263789980
 20
21034.6073084284
 0
SEQEND
 0
POLYLINE
 8
VUE_1
 66
1
 62
5
 0
VERTEX
 8
VUE_1
 10
10885.5652814112
 20
20998.4572919314
 0
VERTEX
 8
VUE_1
 10
11988.1080765906
 20
21020.1833755144
 0
SEQEND
 0
POLYLINE
 8
VUE_1
 66
1
 0
VERTEX
 8
VUE_1
 10
11988.1080765906
 20
21020.1833755144
 0
VERTEX
 8
VUE_1
 10
11987.5170283317
 20
21050.1775526484
 0
SEQEND
 0
POLYLINE
 8
VUE_1
 66
1
 62
5
 0
VERTEX
 8
VUE_1
 10
10884.9742331523
 20
21028.4514690656
 0
VERTEX
 8
VUE_1
 10
11945.4033540452
 20
21049.3476844460
 0
SEQEND
 0
POLYLINE
 8
VUE_1
 66
1
 0
VERTEX
 8
VUE_1
 10
11975.6953070869
 20
21049.9446005083
 0
VERTEX
 8
VUE_1
 10
11987.5170283317
 20
21050.1775526484
 0
SEQEND
 0
POINT
 8
VUE_1
 10
12641.9326681290
 20
21105.4442520976
 0
POINT
 8
VUE_1
 10
12863.8798902539
 20
22063.8697598539
 0
POLYLINE
 8
VUE_1
 66
1
 62
5
 0
VERTEX
 8
VUE_1
 10
12868.3373487200
 20
22038.7928784073
 0
VERTEX
 8
VUE_1
 10
12658.7601718076
 20
21133.7844251661
 0
SEQEND
 0
POLYLINE
 8
VUE_1
 66
1
 62
5
 0
VERTEX
 8
VUE_1
 10
12847.8861588518
 20
22039.1300311152
 0
VERTEX
 8
VUE_1
 10
12637.6102909256
 20
21131.1044493730
 0
SEQEND
 0
POLYLINE
 8
VUE_1
 66
1
 62
5
 0
VERTEX
 8
VUE_1
 10
12594.7186364951
 20
21125.6694969852
 0
VERTEX
 8
VUE_1
 10
12015.5994114841
 20
21522.4329421225
 0
SEQEND
 0
POLYLINE
 8
VUE_1
 66
1
 62
5
 0
VERTEX
 8
VUE_1
 10
12624.5816088416
 20
21129.4535392426
 0
VERTEX
 8
VUE_1
 10
12026.9032556811
 20
21538.9321271439
 0
SEQEND
 0
POLYLINE
 8
VUE_1
 66
1
 0
VERTEX
 8
VUE_1
 10
12863.8798902539
 20
22063.8697598539
 0
VERTEX
 8
VUE_1
 10
12083.2646465548
 20
22062.0127377876
 0
SEQEND
 0
POLYLINE
 8
VUE_1
 66
1
 0
VERTEX
 8
VUE_1
 10
12863.8798902539
 20
22063.8697598539
 0
VERTEX
 8
VUE_1
 10
12021.2513335826
 20
21530.6825346332
 0
SEQEND
 0
POLYLINE
 8
VUE_1
 66
1
 62
5
 0
VERTEX
 8
VUE_1
 10
12843.5956751019
 20
22039.2007628538
 0
VERTEX
 8
VUE_1
 10
12026.5984360166
 20
21522.2321798738
 0
SEQEND
 0
POLYLINE
 8
VUE_1
 66
1
 62
5
 0
VERTEX
 8
VUE_1
 10
12807.1419826432
 20
22039.8017284312
 0
VERTEX
 8
VUE_1
 10
12015.9042311486
 20
21539.1328893926
 0
SEQEND
 0
POLYLINE
 8
VUE_1
 66
1
 62
5
 0
VERTEX
 8
VUE_1
 10
11512.6428794410
 20
21548.2597273110
 0
VERTEX
 8
VUE_1
 10
11570.6005058387
 20
22107.2221720007
 0
SEQEND
 0
POLYLINE
 8
VUE_1
 66
1
 62
5
 0
VERTEX
 8
VUE_1
 10
11465.7316468184
 20
21037.9280758399
 0
VERTEX
 8
VUE_1
 10
11516.5668017490
 20
21528.1990590096
 0
SEQEND
 0
POLYLINE
 8
VUE_1
 66
1
 62
5
 0
VERTEX
 8
VUE_1
 10
11445.8382993527
 20
21039.9907747049
 0
VERTEX
 8
VUE_1
 10
11496.4905852307
 20
21528.4981084808
 0
SEQEND
 0
POINT
 8
VUE_1
 10
11500.8522627710
 20
21240.6264391810
 0
POINT
 8
VUE_1
 10
11964.8481707714
 20
21209.7619142996
 0
POLYLINE
 8
VUE_1
 66
1
 0
VERTEX
 8
VUE_1
 10
11964.8481707714
 20
21209.7619142996
 0
VERTEX
 8
VUE_1
 10
11500.8522627710
 20
21240.6264391810
 0
SEQEND
 0
POLYLINE
 8
VUE_1
 66
1
 62
5
 0
VERTEX
 8
VUE_1
 10
11964.1844479695
 20
21199.7839650093
 0
VERTEX
 8
VUE_1
 10
11485.8135636560
 20
21231.6046983537
 0
SEQEND
 0
POLYLINE
 8
VUE_1
 66
1
 62
5
 0
VERTEX
 8
VUE_1
 10
11965.5118935734
 20
21219.7398635901
 0
VERTEX
 8
VUE_1
 10
11487.8776674274
 20
21251.5115952000
 0
SEQEND
 0
POLYLINE
 8
VUE_1
 66
1
 62
5
 0
VERTEX
 8
VUE_1
 10
11027.2107772914
 20
22285.5600155928
 0
VERTEX
 8
VUE_1
 10
10885.2697572818
 20
21013.4543804984
 0
SEQEND
 0
POLYLINE
 8
VUE_1
 66
1
 62
5
 0
VERTEX
 8
VUE_1
 10
11007.3341267430
 20
22287.7778440304
 0
VERTEX
 8
VUE_1
 10
10865.3931067334
 20
21015.6722089360
 0
SEQEND
 0
POINT
 8
VUE_1
 10
10950.9009974302
 20
21686.6980410204
 0
POLYLINE
 8
VUE_1
 66
1
 0
VERTEX
 8
VUE_1
 10
10950.9009974302
 20
21686.6980410204
 0
VERTEX
 8
VUE_1
 10
12021.2513335826
 20
21530.6825346332
 0
SEQEND
 0
POLYLINE
 8
VUE_1
 66
1
 62
5
 0
VERTEX
 8
VUE_1
 10
10952.3433670416
 20
21696.5934727900
 0
VERTEX
 8
VUE_1
 10
12022.6937031940
 20
21540.5779664027
 0
SEQEND
 0
POLYLINE
 8
VUE_1
 66
1
 62
5
 0
VERTEX
 8
VUE_1
 10
10949.4586278188
 20
21676.8026092510
 0
VERTEX
 8
VUE_1
 10
12019.8089639712
 20
21520.7871028638
 0
SEQEND
 0
POINT
 8
VUE_1
 10
10143.5310013081
 20
20990.3477226481
 0
POLYLINE
 8
VUE_1
 66
1
 0
VERTEX
 8
VUE_1
 10
10885.2697572818
 20
21013.4543804984
 0
VERTEX
 8
VUE_1
 10
10143.5310013081
 20
20990.3477226481
 0
SEQEND
 0
POLYLINE
 8
VUE_1
 66
1
 62
5
 0
VERTEX
 8
VUE_1
 10
10885.7368109562
 20
20998.4616535661
 0
VERTEX
 8
VUE_1
 10
10143.9980549826
 20
20975.3549957159
 0
SEQEND
 0
POLYLINE
 8
VUE_1
 66
1
 62
5
 0
VERTEX
 8
VUE_1
 10
10884.8027036073
 20
21028.4471074307
 0
VERTEX
 8
VUE_1
 10
10143.0639476337
 20
21005.3404495804
 0
SEQEND
 0
POINT
 8
VUE_1
 10
9736.1590960521
 20
19823.1376052273
 0
POLYLINE
 8
VUE_1
 66
1
 0
VERTEX
 8
VUE_1
 10
9532.5293837005
 20
19521.0627033571
 0
VERTEX
 8
VUE_1
 10
16193.1119260676
 20
21119.4030871459
 0
SEQEND
 0
POINT
 8
VUE_1
 10
9343.5309945901
 20
21570.5690765380
 0
POLYLINE
 8
VUE_1
 66
1
 0
VERTEX
 8
VUE_1
 10
9343.5309945901
 20
21570.5690765380
 0
VERTEX
 8
VUE_1
 10
12021.2513335826
 20
21530.6825346332
 0
SEQEND
 0
POLYLINE
 8
VUE_1
 66
1
 62
5
 0
VERTEX
 8
VUE_1
 10
9343.6799351535
 20
21580.5679673120
 0
VERTEX
 8
VUE_1
 10
12021.4002741460
 20
21540.6814254072
 0
SEQEND
 0
POLYLINE
 8
VUE_1
 66
1
 62
5
 0
VERTEX
 8
VUE_1
 10
9343.3820540267
 20
21560.5701857642
 0
VERTEX
 8
VUE_1
 10
12021.1023930192
 20
21520.6836438594
 0
SEQEND
 0
POINT
 8
VUE_1
 10
9649.5393963027
 20
21566.0108645544
 0
POLYLINE
 8
VUE_1
 66
1
 0
VERTEX
 8
VUE_1
 10
10143.5309945693
 20
22330.2570950600
 0
VERTEX
 8
VUE_1
 10
9649.5393963027
 20
21566.0108645544
 0
SEQEND
 0
POLYLINE
 8
VUE_1
 66
1
 62
5
 0
VERTEX
 8
VUE_1
 10
10156.1284599073
 20
22322.1143764072
 0
VERTEX
 8
VUE_1
 10
9673.6326486542
 20
21575.6530878371
 0
SEQEND
 0
POLYLINE
 8
VUE_1
 66
1
 62
5
 0
VERTEX
 8
VUE_1
 10
10130.9335292313
 20
22338.3998137128
 0
VERTEX
 8
VUE_1
 10
9638.2518324742
 20
21576.1801101652
 0
SEQEND
 0
POLYLINE
 8
VUE_1
 66
1
 0
VERTEX
 8
VUE_1
 10
10143.5309946205
 20
21680.3700058140
 0
VERTEX
 8
VUE_1
 10
9649.5393963027
 20
21566.0108645544
 0
SEQEND
 0
POLYLINE
 8
VUE_1
 66
1
 62
5
 0
VERTEX
 8
VUE_1
 10
10133.5309945323
 20
21688.3194686261
 0
VERTEX
 8
VUE_1
 10
10057.1436794661
 20
21670.6357918514
 0
SEQEND
 0
POLYLINE
 8
VUE_1
 66
1
 62
5
 0
VERTEX
 8
VUE_1
 10
10023.5496138865
 20
21662.8587598044
 0
VERTEX
 8
VUE_1
 10
9678.3452605396
 20
21582.9438917332
 0
SEQEND
 0
POLYLINE
 8
VUE_1
 66
1
 62
5
 0
VERTEX
 8
VUE_1
 10
10133.5309944844
 20
21667.7905394580
 0
VERTEX
 8
VUE_1
 10
10053.8319389392
 20
21649.3401941841
 0
SEQEND
 0
POLYLINE
 8
VUE_1
 66
1
 62
5
 0
VERTEX
 8
VUE_1
 10
10020.2378733597
 20
21641.5631621372
 0
VERTEX
 8
VUE_1
 10
9731.7874179176
 20
21574.7868313399
 0
SEQEND
 0
POINT
 8
VUE_1
 10
9343.5309945901
 20
21030.5593566895
 0
POLYLINE
 8
VUE_1
 66
1
 0
VERTEX
 8
VUE_1
 10
10143.5310013081
 20
20990.3477226481
 0
VERTEX
 8
VUE_1
 10
9343.5309945901
 20
21030.5593566895
 0
SEQEND
 0
POLYLINE
 8
VUE_1
 66
1
 62
5
 0
VERTEX
 8
VUE_1
 10
10142.7779838345
 20
20975.3666357488
 0
VERTEX
 8
VUE_1
 10
9342.7779771165
 20
21015.5782697901
 0
SEQEND
 0
POLYLINE
 8
VUE_1
 66
1
 62
5
 0
VERTEX
 8
VUE_1
 10
10144.2840187817
 20
21005.3288095474
 0
VERTEX
 8
VUE_1
 10
9344.2840120637
 20
21045.5404435888
 0
SEQEND
 0
POLYLINE
 8
VUE_1
 66
1
 62
5
 0
VERTEX
 8
VUE_1
 10
9343.5309945901
 20
21611.4888479426
 0
VERTEX
 8
VUE_1
 10
9499.0955693695
 20
21768.8889929258
 0
SEQEND
 0
POLYLINE
 8
VUE_1
 66
1
 62
5
 0
VERTEX
 8
VUE_1
 10
9343.5309945901
 20
21618.6017553054
 0
VERTEX
 8
VUE_1
 10
9490.6678660475
 20
21767.4747550396
 0
SEQEND
 0
POLYLINE
 8
VUE_1
 66
1
 0
VERTEX
 8
VUE_1
 10
9649.5393963027
 20
21566.0108645544
 0
VERTEX
 8
VUE_1
 10
9343.5309945901
 20
21030.5593566895
 0
SEQEND
 0
POLYLINE
 8
VUE_1
 66
1
 62
5
 0
VERTEX
 8
VUE_1
 10
9655.2926711762
 20
21555.9240560992
 0
VERTEX
 8
VUE_1
 10
9352.2131737689
 20
21025.5975259076
 0
SEQEND
 0
POLYLINE
 8
VUE_1
 66
1
 62
5
 0
VERTEX
 8
VUE_1
 10
9632.4514236458
 20
21556.2642926667
 0
VERTEX
 8
VUE_1
 10
9334.8488154113
 20
21035.5211874712
 0
SEQEND
 0
POLYLINE
 8
VUE_1
 66
1
 0
VERTEX
 8
VUE_1
 10
9649.5393963027
 20
21566.0108645544
 0
VERTEX
 8
VUE_1
 10
10143.5310013081
 20
20990.3477226481
 0
SEQEND
 0
POLYLINE
 8
VUE_1
 66
1
 62
5
 0
VERTEX
 8
VUE_1
 10
9678.2544256434
 20
21555.5820244955
 0
VERTEX
 8
VUE_1
 10
10154.9143176995
 20
21000.1160443020
 0
SEQEND
 0
POLYLINE
 8
VUE_1
 66
1
 62
5
 0
VERTEX
 8
VUE_1
 10
9648.5515176052
 20
21544.1284294951
 0
VERTEX
 8
VUE_1
 10
10109.4051275002
 20
21007.0819810476
 0
SEQEND
 0
POINT
 8
VUE_1
 10
10911.5561947630
 20
20883.9471288236
 0
POINT
 8
VUE_1
 10
11944.1427664533
 20
20914.2966360382
 0
POLYLINE
 8
VUE_1
 66
1
 62
5
 0
VERTEX
 8
VUE_1
 10
11944.1427664533
 20
20914.2966360382
 0
VERTEX
 8
VUE_1
 10
10911.5561947630
 20
20883.9471288236
 0
VERTEX
 8
VUE_1
 10
9844.0659753980
 20
20844.5003732168
 0
VERTEX
 8
VUE_1
 10
9532.1926424721
 20
20844.5003732168
 0
VERTEX
 8
VUE_1
 10
9440.2926634908
 20
20863.0759008832
 0
VERTEX
 8
VUE_1
 10
9349.3703438604
 20
20893.3833407601
 0
SEQEND
 0
POLYLINE
 8
VUE_1
 66
1
 0
VERTEX
 8
VUE_1
 10
10885.2697572818
 20
21013.4543804984
 0
VERTEX
 8
VUE_1
 10
10620.2356764974
 20
20766.7809521232
 0
SEQEND
 0
POLYLINE
 8
VUE_1
 66
1
 62
5
 0
VERTEX
 8
VUE_1
 10
10558.2869740038
 20
20804.2113803813
 0
VERTEX
 8
VUE_1
 10
10577.0468873304
 20
20797.7128445281
 0
VERTEX
 8
VUE_1
 10
10587.7544234599
 20
20792.0441489301
 0
VERTEX
 8
VUE_1
 10
10599.0918146558
 20
20783.2261780000
 0
VERTEX
 8
VUE_1
 10
10608.5396406524
 20
20776.9276273356
 0
VERTEX
 8
VUE_1
 10
10617.3576115826
 20
20768.1096564053
 0
VERTEX
 8
VUE_1
 10
10623.0263071806
 20
20761.1812506745
 0
VERTEX
 8
VUE_1
 10
10629.9547129114
 20
20752.3632797444
 0
VERTEX
 8
VUE_1
 10
10634.9935534430
 20
20745.4348740135
 0
VERTEX
 8
VUE_1
 10
10636.8831186423
 20
20737.2467581497
 0
VERTEX
 8
VUE_1
 10
10636.8831186423
 20
20737.2467581497
 0
VERTEX
 8
VUE_1
 10
10636.4866595081
 20
20732.9784036540
 0
SEQEND
 0
POLYLINE
 8
VUE_1
 66
1
 62
5
 0
VERTEX
 8
VUE_1
 10
10892.0827227809
 20
21006.1343052865
 0
VERTEX
 8
VUE_1
 10
10627.0486419966
 20
20759.4608769112
 0
SEQEND
 0
POLYLINE
 8
VUE_1
 66
1
 62
5
 0
VERTEX
 8
VUE_1
 10
10878.4567917826
 20
21020.7744557104
 0
VERTEX
 8
VUE_1
 10
10613.4227109983
 20
20774.1010273350
 0
SEQEND
 0
POLYLINE
 8
VUE_1
 66
1
 0
VERTEX
 8
VUE_1
 10
12083.2646465548
 20
22062.0127377876
 0
VERTEX
 8
VUE_1
 10
10885.2697572818
 20
21013.4543804984
 0
SEQEND
 0
POLYLINE
 8
VUE_1
 66
1
 62
5
 0
VERTEX
 8
VUE_1
 10
12091.4973451633
 20
22052.6067464192
 0
VERTEX
 8
VUE_1
 10
11515.2287081533
 20
21548.2212095600
 0
SEQEND
 0
POLYLINE
 8
VUE_1
 66
1
 62
5
 0
VERTEX
 8
VUE_1
 10
11492.7582648658
 20
21528.5537040374
 0
VERTEX
 8
VUE_1
 10
10922.2219564843
 20
21029.1854515956
 0
SEQEND
 0
POLYLINE
 8
VUE_1
 66
1
 62
5
 0
VERTEX
 8
VUE_1
 10
12075.0319479463
 20
22071.4187291560
 0
VERTEX
 8
VUE_1
 10
11477.9055045042
 20
21548.7771651260
 0
SEQEND
 0
POLYLINE
 8
VUE_1
 66
1
 62
5
 0
VERTEX
 8
VUE_1
 10
11455.4350612168
 20
21529.1096596032
 0
VERTEX
 8
VUE_1
 10
10883.3892947397
 20
21028.4202371672
 0
SEQEND
 0
POINT
 8
VUE_1
 10
10143.5309945648
 20
21558.6525096516
 0
POLYLINE
 8
VUE_1
 66
1
 0
VERTEX
 8
VUE_1
 10
10143.5309945648
 20
21558.6525096516
 0
VERTEX
 8
VUE_1
 10
10885.2697572818
 20
21013.4543804984
 0
SEQEND
 0
POLYLINE
 8
VUE_1
 66
1
 62
5
 0
VERTEX
 8
VUE_1
 10
10178.9613813898
 20
21548.1236395844
 0
VERTEX
 8
VUE_1
 10
10868.2707786836
 20
21041.4625174992
 0
SEQEND
 0
POLYLINE
 8
VUE_1
 66
1
 62
5
 0
VERTEX
 8
VUE_1
 10
10153.5309946160
 20
21535.7888119084
 0
VERTEX
 8
VUE_1
 10
10845.4348151185
 20
21027.2207183249
 0
SEQEND
 0
POLYLINE
 8
VUE_1
 66
1
 62
5
 0
VERTEX
 8
VUE_1
 10
10133.5309944816
 20
21666.5636612264
 0
VERTEX
 8
VUE_1
 10
10133.5309942537
 20
21568.8025760915
 0
SEQEND
 0
POLYLINE
 8
VUE_1
 66
1
 62
5
 0
VERTEX
 8
VUE_1
 10
10133.5309942071
 20
21548.8003573938
 0
VERTEX
 8
VUE_1
 10
10133.5309929864
 20
21025.0346699709
 0
SEQEND
 0
POLYLINE
 8
VUE_1
 66
1
 62
5
 0
VERTEX
 8
VUE_1
 10
10153.5309944186
 20
22318.3041064840
 0
VERTEX
 8
VUE_1
 10
10153.5309946077
 20
21568.5046619140
 0
SEQEND
 0
POLYLINE
 8
VUE_1
 66
1
 62
5
 0
VERTEX
 8
VUE_1
 10
10153.5309946128
 20
21548.5024432156
 0
VERTEX
 8
VUE_1
 10
10153.5309947497
 20
21005.6665192032
 0
SEQEND
 0
POLYLINE
 8
VUE_1
 66
1
 62
5
 0
VERTEX
 8
VUE_1
 10
9343.5309945901
 20
21570.5690765380
 0
VERTEX
 8
VUE_1
 10
9343.5309945901
 20
21030.5593566895
 0
SEQEND
 0
POLYLINE
 8
VUE_1
 66
1
 0
VERTEX
 8
VUE_1
 10
10143.5309945901
 20
22287.1843685657
 0
VERTEX
 8
VUE_1
 10
9756.5347973862
 20
22116.0856314476
 0
VERTEX
 8
VUE_1
 10
9607.7892403079
 20
21787.1286842820
 0
VERTEX
 8
VUE_1
 10
9654.9120085073
 20
21565.9308356885
 0
SEQEND
 0
POLYLINE
 8
VUE_1
 66
1
 0
VERTEX
 8
VUE_1
 10
10143.5309945901
 20
22287.1843685657
 0
VERTEX
 8
VUE_1
 10
10143.5309945901
 20
22287.1843685657
 0
SEQEND
 0
POLYLINE
 8
VUE_1
 66
1
 0
VERTEX
 8
VUE_1
 10
19027.7155992197
 20
1848.8265393441
 0
VERTEX
 8
VUE_1
 10
12508.0464675788
 20
1848.8265393441
 0
SEQEND
 0
POINT
 8
VUE_1
 10
17200.9418658497
 20
22025.7176353858
 0
POLYLINE
 8
VUE_1
 66
1
 0
VERTEX
 8
VUE_1
 10
19816.0266563924
 20
2745.1881835834
 0
VERTEX
 8
VUE_1
 10
19816.0266563924
 20
283.1413820045
 0
SEQEND
 0
POLYLINE
 8
VUE_1
 66
1
 0
VERTEX
 8
VUE_1
 10
12508.0464675788
 20
2745.1881835834
 0
VERTEX
 8
VUE_1
 10
19816.0266563924
 20
2745.1881835834
 0
SEQEND
 0
POLYLINE
 8
VUE_1
 66
1
 0
VERTEX
 8
VUE_1
 10
12508.0464675788
 20
283.1413820045
 0
VERTEX
 8
VUE_1
 10
12508.0464675788
 20
2745.1881835834
 0
SEQEND
 0
POINT
 8
COTES
 10
15484.4543836980
 20
9015.3034101093
 0
ENDSEC
 0
EOF
