  0
SECTION
  2
HEADER
  9
$ACADVER
  1
AC1015
  9
$ACADMAINTVER
 70
    20
  9
$DWGCODEPAGE
  3
ANSI_1252
  9
$INSBASE
 10
0.0
 20
0.0
 30
0.0
  9
$EXTMIN
 10
225.265374166957
 20
-19.99860021685716
 30
0.0
  9
$EXTMAX
 10
404.4092800919416
 20
171.542369429198
 30
0.0
  9
$LIMMIN
 10
0.0
 20
0.0
  9
$LIMMAX
 10
420.0
 20
297.0
  9
$ORTHOMODE
 70
     1
  9
$REGENMODE
 70
     1
  9
$FILLMODE
 70
     1
  9
$QTEXTMODE
 70
     0
  9
$MIRRTEXT
 70
     1
  9
$LTSCALE
 40
0.3
  9
$ATTMODE
 70
     1
  9
$TEXTSIZE
 40
3.5
  9
$TRACEWID
 40
1.0
  9
$TEXTSTYLE
  7
STANDARD
  9
$CLAYER
  8
0
  9
$CELTYPE
  6
ByLayer
  9
$CECOLOR
 62
   256
  9
$CELTSCALE
 40
1.0
  9
$DISPSILH
 70
     0
  9
$DIMSCALE
 40
1.0
  9
$DIMASZ
 40
2.5
  9
$DIMEXO
 40
0.625
  9
$DIMDLI
 40
3.75
  9
$DIMRND
 40
0.0
  9
$DIMDLE
 40
0.0
  9
$DIMEXE
 40
1.25
  9
$DIMTP
 40
0.0
  9
$DIMTM
 40
0.0
  9
$DIMTXT
 40
2.5
  9
$DIMCEN
 40
2.5
  9
$DIMTSZ
 40
0.0
  9
$DIMTOL
 70
     0
  9
$DIMLIM
 70
     0
  9
$DIMTIH
 70
     1
  9
$DIMTOH
 70
     0
  9
$DIMSE1
 70
     0
  9
$DIMSE2
 70
     0
  9
$DIMTAD
 70
     1
  9
$DIMZIN
 70
     8
  9
$DIMBLK
  1

  9
$DIMASO
 70
     1
  9
$DIMSHO
 70
     1
  9
$DIMPOST
  1

  9
$DIMAPOST
  1

  9
$DIMALT
 70
     0
  9
$DIMALTD
 70
     2
  9
$DIMALTF
 40
0.0394
  9
$DIMLFAC
 40
1.0
  9
$DIMTOFL
 70
     1
  9
$DIMTVP
 40
1.0
  9
$DIMTIX
 70
     0
  9
$DIMSOXD
 70
     0
  9
$DIMSAH
 70
     0
  9
$DIMBLK1
  1

  9
$DIMBLK2
  1

  9
$DIMSTYLE
  2
Standard
  9
$DIMCLRD
 70
     0
  9
$DIMCLRE
 70
     0
  9
$DIMCLRT
 70
     0
  9
$DIMTFAC
 40
1.0
  9
$DIMGAP
 40
0.625
  9
$DIMJUST
 70
     0
  9
$DIMSD1
 70
     0
  9
$DIMSD2
 70
     0
  9
$DIMTOLJ
 70
     1
  9
$DIMTZIN
 70
     8
  9
$DIMALTZ
 70
     8
  9
$DIMALTTZ
 70
     8
  9
$DIMUPT
 70
     0
  9
$DIMDEC
 70
     4
  9
$DIMTDEC
 70
     4
  9
$DIMALTU
 70
     2
  9
$DIMALTTD
 70
     2
  9
$DIMTXSTY
  7
STANDARD
  9
$DIMAUNIT
 70
     0
  9
$DIMADEC
 70
     0
  9
$DIMALTRND
 40
0.0
  9
$DIMAZIN
 70
     0
  9
$DIMDSEP
 70
    46
  9
$DIMATFIT
 70
     3
  9
$DIMFRAC
 70
     0
  9
$DIMLDRBLK
  1

  9
$DIMLUNIT
 70
     2
  9
$DIMLWD
 70
    -2
  9
$DIMLWE
 70
    -2
  9
$DIMTMOVE
 70
     2
  9
$LUNITS
 70
     2
  9
$LUPREC
 70
     4
  9
$SKETCHINC
 40
1.0
  9
$FILLETRAD
 40
0.0
  9
$AUNITS
 70
     0
  9
$AUPREC
 70
     0
  9
$MENU
  1
acad
  9
$ELEVATION
 40
0.0
  9
$PELEVATION
 40
0.0
  9
$THICKNESS
 40
0.0
  9
$LIMCHECK
 70
     0
  9
$CHAMFERA
 40
10.0
  9
$CHAMFERB
 40
10.0
  9
$CHAMFERC
 40
0.0
  9
$CHAMFERD
 40
0.0
  9
$SKPOLY
 70
     0
  9
$TDCREATE
 40
2450374.865559606
  9
$TDUCREATE
 40
2450374.782226274
  9
$TDUPDATE
 40
2453485.694513345
  9
$TDUUPDATE
 40
2453485.611180012
  9
$TDINDWG
 40
0.1793267593
  9
$TDUSRTIMER
 40
0.1793267593
  9
$USRTIMER
 70
     1
  9
$ANGBASE
 50
0.0
  9
$ANGDIR
 70
     0
  9
$PDMODE
 70
     0
  9
$PDSIZE
 40
0.0
  9
$PLINEWID
 40
0.0
  9
$SPLFRAME
 70
     0
  9
$SPLINETYPE
 70
     6
  9
$SPLINESEGS
 70
     8
  9
$HANDSEED
  5
106
  9
$SURFTAB1
 70
     6
  9
$SURFTAB2
 70
     6
  9
$SURFTYPE
 70
     6
  9
$SURFU
 70
     6
  9
$SURFV
 70
     6
  9
$UCSBASE
  2

  9
$UCSNAME
  2

  9
$UCSORG
 10
0.0
 20
0.0
 30
0.0
  9
$UCSXDIR
 10
1.0
 20
0.0
 30
0.0
  9
$UCSYDIR
 10
0.0
 20
1.0
 30
0.0
  9
$UCSORTHOREF
  2

  9
$UCSORTHOVIEW
 70
     0
  9
$UCSORGTOP
 10
0.0
 20
0.0
 30
0.0
  9
$UCSORGBOTTOM
 10
0.0
 20
0.0
 30
0.0
  9
$UCSORGLEFT
 10
0.0
 20
0.0
 30
0.0
  9
$UCSORGRIGHT
 10
0.0
 20
0.0
 30
0.0
  9
$UCSORGFRONT
 10
0.0
 20
0.0
 30
0.0
  9
$UCSORGBACK
 10
0.0
 20
0.0
 30
0.0
  9
$PUCSBASE
  2

  9
$PUCSNAME
  2

  9
$PUCSORG
 10
0.0
 20
0.0
 30
0.0
  9
$PUCSXDIR
 10
1.0
 20
0.0
 30
0.0
  9
$PUCSYDIR
 10
0.0
 20
1.0
 30
0.0
  9
$PUCSORTHOREF
  2

  9
$PUCSORTHOVIEW
 70
     0
  9
$PUCSORGTOP
 10
0.0
 20
0.0
 30
0.0
  9
$PUCSORGBOTTOM
 10
0.0
 20
0.0
 30
0.0
  9
$PUCSORGLEFT
 10
0.0
 20
0.0
 30
0.0
  9
$PUCSORGRIGHT
 10
0.0
 20
0.0
 30
0.0
  9
$PUCSORGFRONT
 10
0.0
 20
0.0
 30
0.0
  9
$PUCSORGBACK
 10
0.0
 20
0.0
 30
0.0
  9
$USERI1
 70
     0
  9
$USERI2
 70
     0
  9
$USERI3
 70
     0
  9
$USERI4
 70
     0
  9
$USERI5
 70
     0
  9
$USERR1
 40
0.0
  9
$USERR2
 40
0.0
  9
$USERR3
 40
0.0
  9
$USERR4
 40
0.0
  9
$USERR5
 40
0.0
  9
$WORLDVIEW
 70
     1
  9
$SHADEDGE
 70
     3
  9
$SHADEDIF
 70
    70
  9
$TILEMODE
 70
     1
  9
$MAXACTVP
 70
    16
  9
$PINSBASE
 10
0.0
 20
0.0
 30
0.0
  9
$PLIMCHECK
 70
     0
  9
$PEXTMIN
 10
1.000000000000000E+20
 20
1.000000000000000E+20
 30
1.000000000000000E+20
  9
$PEXTMAX
 10
-1.000000000000000E+20
 20
-1.000000000000000E+20
 30
-1.000000000000000E+20
  9
$PLIMMIN
 10
0.0
 20
0.0
  9
$PLIMMAX
 10
420.0
 20
297.0
  9
$UNITMODE
 70
     0
  9
$VISRETAIN
 70
     0
  9
$PLINEGEN
 70
     0
  9
$PSLTSCALE
 70
     1
  9
$TREEDEPTH
 70
  3020
  9
$CMLSTYLE
  2
Standard
  9
$CMLJUST
 70
     0
  9
$CMLSCALE
 40
1.0
  9
$PROXYGRAPHICS
 70
     1
  9
$MEASUREMENT
 70
     0
  9
$CELWEIGHT
370
    -1
  9
$ENDCAPS
280
     0
  9
$JOINSTYLE
280
     0
  9
$LWDISPLAY
290
     0
  9
$INSUNITS
 70
     0
  9
$HYPERLINKBASE
  1

  9
$STYLESHEET
  1

  9
$XEDIT
290
     1
  9
$CEPSNTYPE
380
     0
  9
$PSTYLEMODE
290
     1
  9
$FINGERPRINTGUID
  2
{474A5EC8-5BB2-4C5D-9295-297397D6C110}
  9
$VERSIONGUID
  2
{BA5DD6A8-A664-4D0E-9F9E-80C242B892B4}
  9
$EXTNAMES
290
     1
  9
$PSVPSCALE
 40
0.0
  9
$OLESTARTUP
290
     0
  0
ENDSEC
  0
SECTION
  2
CLASSES
  0
CLASS
  1
ACDBDICTIONARYWDFLT
  2
AcDbDictionaryWithDefault
  3
ObjectDBX Classes
 90
        0
280
     0
281
     0
  0
CLASS
  1
ACDBPLACEHOLDER
  2
AcDbPlaceHolder
  3
ObjectDBX Classes
 90
        0
280
     0
281
     0
  0
CLASS
  1
LAYOUT
  2
AcDbLayout
  3
ObjectDBX Classes
 90
        0
280
     0
281
     0
  0
CLASS
  1
DICTIONARYVAR
  2
AcDbDictionaryVar
  3
ObjectDBX Classes
 90
        0
280
     0
281
     0
  0
CLASS
  1
TABLESTYLE
  2
AcDbTableStyle
  3
ObjectDBX Classes
 90
     2047
280
     0
281
     0
  0
ENDSEC
  0
SECTION
  2
TABLES
  0
TABLE
  2
VPORT
  5
8
330
0
100
AcDbSymbolTable
 70
     4
  0
VPORT
  5
100
330
8
100
AcDbSymbolTableRecord
100
AcDbViewportTableRecord
  2
*Active
 70
     0
 10
0.0
 20
0.0
 11
1.0
 21
1.0
 12
583.1308870275774
 22
103.6993722471201
 13
0.0
 23
0.0
 14
10.0
 24
10.0
 15
10.0
 25
10.0
 16
0.0
 26
0.0
 36
1.0
 17
0.0
 27
0.0
 37
0.0
 40
822.420912307521
 41
1.829565217391304
 42
50.0
 43
0.0
 44
0.0
 50
0.0
 51
0.0
 71
     0
 72
   100
 73
     1
 74
     0
 75
     0
 76
     0
 77
     0
 78
     0
281
     0
 65
     1
110
0.0
120
0.0
130
0.0
111
1.0
121
0.0
131
0.0
112
0.0
122
1.0
132
0.0
 79
     0
146
0.0
  0
ENDTAB
  0
TABLE
  2
LTYPE
  5
5
330
0
100
AcDbSymbolTable
 70
    25
  0
LTYPE
  5
13
330
5
100
AcDbSymbolTableRecord
100
AcDbLinetypeTableRecord
  2
ByBlock
 70
     0
  3

 72
    65
 73
     0
 40
0.0
  0
LTYPE
  5
14
330
5
100
AcDbSymbolTableRecord
100
AcDbLinetypeTableRecord
  2
ByLayer
 70
     0
  3

 72
    65
 73
     0
 40
0.0
  0
LTYPE
  5
15
330
5
100
AcDbSymbolTableRecord
100
AcDbLinetypeTableRecord
  2
CONTINUOUS
 70
     0
  3
Solid line
 72
    65
 73
     0
 40
0.0
  0
LTYPE
  5
22
330
5
100
AcDbSymbolTableRecord
100
AcDbLinetypeTableRecord
  2
BORDURE
 70
     0
  3
__ __ . __ __ . __ __ . __ __ . __ __ . __ __ .
 72
    65
 73
     6
 40
44.45
 49
12.7
 74
     0
 49
-6.349999999999999
 74
     0
 49
12.7
 74
     0
 49
-6.349999999999999
 74
     0
 49
0.0
 74
     0
 49
-6.349999999999999
 74
     0
  0
LTYPE
  5
23
330
5
100
AcDbSymbolTableRecord
100
AcDbLinetypeTableRecord
  2
BORDURE2
 70
     0
  3
__.__.__.__.__.__.__.__.__.__.__.__.__.__.__.__
 72
    65
 73
     6
 40
22.225
 49
6.349999999999999
 74
     0
 49
-3.174999999999999
 74
     0
 49
6.349999999999999
 74
     0
 49
-3.174999999999999
 74
     0
 49
0.0
 74
     0
 49
-3.174999999999999
 74
     0
  0
LTYPE
  5
24
330
5
100
AcDbSymbolTableRecord
100
AcDbLinetypeTableRecord
  2
BORDUREX2
 70
     0
  3
____  ____  .  ____  ____  .  ____  ____  .  __
 72
    65
 73
     6
 40
88.9
 49
25.4
 74
     0
 49
-12.7
 74
     0
 49
25.4
 74
     0
 49
-12.7
 74
     0
 49
0.0
 74
     0
 49
-12.7
 74
     0
  0
LTYPE
  5
25
330
5
100
AcDbSymbolTableRecord
100
AcDbLinetypeTableRecord
  2
AXES
 70
     0
  3
____ _ ____ _ ____ _ ____ _ ____ _ ____ _ ____ 
 72
    65
 73
     4
 40
50.8
 49
31.75
 74
     0
 49
-6.349999999999999
 74
     0
 49
6.349999999999999
 74
     0
 49
-6.349999999999999
 74
     0
  0
LTYPE
  5
26
330
5
100
AcDbSymbolTableRecord
100
AcDbLinetypeTableRecord
  2
AXES2
 70
     0
  3
___ _ ___ _ ___ _ ___ _ ___ _ ___ _ ___ _ ___ _
 72
    65
 73
     4
 40
28.575
 49
19.05
 74
     0
 49
-3.174999999999999
 74
     0
 49
3.174999999999999
 74
     0
 49
-3.174999999999999
 74
     0
  0
LTYPE
  5
27
330
5
100
AcDbSymbolTableRecord
100
AcDbLinetypeTableRecord
  2
AXESX2
 70
     0
  3
________  __  ________  __  ________  __  _____
 72
    65
 73
     4
 40
101.6
 49
63.5
 74
     0
 49
-12.7
 74
     0
 49
12.7
 74
     0
 49
-12.7
 74
     0
  0
LTYPE
  5
28
330
5
100
AcDbSymbolTableRecord
100
AcDbLinetypeTableRecord
  2
TIRETPT
 70
     0
  3
__ . __ . __ . __ . __ . __ . __ . __ . __ . __
 72
    65
 73
     4
 40
25.4
 49
12.7
 74
     0
 49
-6.349999999999999
 74
     0
 49
0.0
 74
     0
 49
-6.349999999999999
 74
     0
  0
LTYPE
  5
29
330
5
100
AcDbSymbolTableRecord
100
AcDbLinetypeTableRecord
  2
TIRETPT2
 70
     0
  3
_._._._._._._._._._._._._._._._._._._._._._._._
 72
    65
 73
     4
 40
12.7
 49
6.349999999999999
 74
     0
 49
-3.174999999999999
 74
     0
 49
0.0
 74
     0
 49
-3.174999999999999
 74
     0
  0
LTYPE
  5
2A
330
5
100
AcDbSymbolTableRecord
100
AcDbLinetypeTableRecord
  2
TIRETPTX2
 70
     0
  3
____  .  ____  .  ____  .  ____  .  ____  .  __
 72
    65
 73
     4
 40
50.8
 49
25.4
 74
     0
 49
-12.7
 74
     0
 49
0.0
 74
     0
 49
-12.7
 74
     0
  0
LTYPE
  5
2B
330
5
100
AcDbSymbolTableRecord
100
AcDbLinetypeTableRecord
  2
DISCONTINU
 70
     0
  3
__ __ __ __ __ __ __ __ __ __ __ __ __ __ __ __
 72
    65
 73
     2
 40
19.05
 49
12.7
 74
     0
 49
-6.349999999999999
 74
     0
  0
LTYPE
  5
2C
330
5
100
AcDbSymbolTableRecord
100
AcDbLinetypeTableRecord
  2
DISCONTINU2
 70
     0
  3
_ _ _ _ _ _ _ _ _ _ _ _ _ _ _ _ _ _ _ _ _ _ _ _
 72
    65
 73
     2
 40
9.524999999999998
 49
6.349999999999999
 74
     0
 49
-3.174999999999999
 74
     0
  0
LTYPE
  5
2D
330
5
100
AcDbSymbolTableRecord
100
AcDbLinetypeTableRecord
  2
DISCONTINUX2
 70
     0
  3
____  ____  ____  ____  ____  ____  ____  ____ 
 72
    65
 73
     2
 40
38.1
 49
25.4
 74
     0
 49
-12.7
 74
     0
  0
LTYPE
  5
2E
330
5
100
AcDbSymbolTableRecord
100
AcDbLinetypeTableRecord
  2
DIVISE
 70
     0
  3
____ . . ____ . . ____ . . ____ . . ____ . . __
 72
    65
 73
     6
 40
31.75
 49
12.7
 74
     0
 49
-6.349999999999999
 74
     0
 49
0.0
 74
     0
 49
-6.349999999999999
 74
     0
 49
0.0
 74
     0
 49
-6.349999999999999
 74
     0
  0
LTYPE
  5
2F
330
5
100
AcDbSymbolTableRecord
100
AcDbLinetypeTableRecord
  2
DIVISE2
 70
     0
  3
__..__..__..__..__..__..__..__..__..__..__..__.
 72
    65
 73
     6
 40
15.875
 49
6.349999999999999
 74
     0
 49
-3.174999999999999
 74
     0
 49
0.0
 74
     0
 49
-3.174999999999999
 74
     0
 49
0.0
 74
     0
 49
-3.174999999999999
 74
     0
  0
LTYPE
  5
30
330
5
100
AcDbSymbolTableRecord
100
AcDbLinetypeTableRecord
  2
DIVISEX2
 70
     0
  3
________  .  .  ________  .  .  ________  .  .
 72
    65
 73
     6
 40
63.49999999999999
 49
25.4
 74
     0
 49
-12.7
 74
     0
 49
0.0
 74
     0
 49
-12.7
 74
     0
 49
0.0
 74
     0
 49
-12.7
 74
     0
  0
LTYPE
  5
31
330
5
100
AcDbSymbolTableRecord
100
AcDbLinetypeTableRecord
  2
POINTILLE
 70
     0
  3
. . . . . . . . . . . . . . . . . . . . . . . .
 72
    65
 73
     2
 40
6.349999999999999
 49
0.0
 74
     0
 49
-6.349999999999999
 74
     0
  0
LTYPE
  5
32
330
5
100
AcDbSymbolTableRecord
100
AcDbLinetypeTableRecord
  2
POINTILLE2
 70
     0
  3
...............................................
 72
    65
 73
     2
 40
3.174999999999999
 49
0.0
 74
     0
 49
-3.174999999999999
 74
     0
  0
LTYPE
  5
33
330
5
100
AcDbSymbolTableRecord
100
AcDbLinetypeTableRecord
  2
POINTILLEX2
 70
     0
  3
.  .  .  .  .  .  .  .  .  .  .  .  .  .  .  . 
 72
    65
 73
     2
 40
12.7
 49
0.0
 74
     0
 49
-12.7
 74
     0
  0
LTYPE
  5
34
330
5
100
AcDbSymbolTableRecord
100
AcDbLinetypeTableRecord
  2
CACHE
 70
     0
  3
__ __ __ __ __ __ __ __ __ __ __ __ __ __ __ __
 72
    65
 73
     2
 40
9.524999999999998
 49
6.349999999999999
 74
     0
 49
-3.174999999999999
 74
     0
  0
LTYPE
  5
35
330
5
100
AcDbSymbolTableRecord
100
AcDbLinetypeTableRecord
  2
CACHE2
 70
     0
  3
_ _ _ _ _ _ _ _ _ _ _ _ _ _ _ _ _ _ _ _ _ _ _ _
 72
    65
 73
     2
 40
4.762499999999999
 49
3.174999999999999
 74
     0
 49
-1.587499999999999
 74
     0
  0
LTYPE
  5
36
330
5
100
AcDbSymbolTableRecord
100
AcDbLinetypeTableRecord
  2
CACHEX2
 70
     0
  3
____ ____ ____ ____ ____ ____ ____ ____ ____ __
 72
    65
 73
     2
 40
19.05
 49
12.7
 74
     0
 49
-6.349999999999999
 74
     0
  0
LTYPE
  5
37
330
5
100
AcDbSymbolTableRecord
100
AcDbLinetypeTableRecord
  2
FANTOME
 70
     0
  3
______  __  __  ______  __  __  ______  __  __
 72
    65
 73
     6
 40
63.5
 49
31.75
 74
     0
 49
-6.349999999999999
 74
     0
 49
6.349999999999999
 74
     0
 49
-6.349999999999999
 74
     0
 49
6.349999999999999
 74
     0
 49
-6.349999999999999
 74
     0
  0
LTYPE
  5
38
330
5
100
AcDbSymbolTableRecord
100
AcDbLinetypeTableRecord
  2
FANTOME2
 70
     0
  3
___ _ _ ___ _ _ ___ _ _ ___ _ _ ___ _ _ ___ _ _
 72
    65
 73
     6
 40
31.75
 49
15.875
 74
     0
 49
-3.174999999999999
 74
     0
 49
3.174999999999999
 74
     0
 49
-3.174999999999999
 74
     0
 49
3.174999999999999
 74
     0
 49
-3.174999999999999
 74
     0
  0
LTYPE
  5
39
330
5
100
AcDbSymbolTableRecord
100
AcDbLinetypeTableRecord
  2
FANTOMEX2
 70
     0
  3
____________    ____    ____    ____________   
 72
    65
 73
     6
 40
127.0
 49
63.5
 74
     0
 49
-12.7
 74
     0
 49
12.7
 74
     0
 49
-12.7
 74
     0
 49
12.7
 74
     0
 49
-12.7
 74
     0
  0
ENDTAB
  0
TABLE
  2
LAYER
  5
2
330
0
100
AcDbSymbolTable
 70
     4
  0
LAYER
  5
10
330
2
100
AcDbSymbolTableRecord
100
AcDbLayerTableRecord
  2
0
 70
     0
 62
     7
  6
CONTINUOUS
370
    -3
390
F
  0
LAYER
  5
3C
330
2
100
AcDbSymbolTableRecord
100
AcDbLayerTableRecord
  2
AXE
 70
     0
 62
     6
  6
AXES2
370
    -3
390
F
  0
LAYER
  5
3D
330
2
100
AcDbSymbolTableRecord
100
AcDbLayerTableRecord
  2
POINT
 70
     0
 62
     3
  6
CACHE
370
    -3
390
F
  0
LAYER
  5
3E
330
2
100
AcDbSymbolTableRecord
100
AcDbLayerTableRecord
  2
CORNIERE
 70
     0
 62
     1
  6
AXES2
370
    -3
390
F
  0
ENDTAB
  0
TABLE
  2
STYLE
  5
3
330
0
100
AcDbSymbolTable
 70
     1
  0
STYLE
  5
11
330
3
100
AcDbSymbolTableRecord
100
AcDbTextStyleTableRecord
  2
STANDARD
 70
     0
 40
0.0
 41
1.0
 50
0.0
 71
     0
 42
3.5
  3
txt
  4

  0
ENDTAB
  0
TABLE
  2
VIEW
  5
6
330
0
100
AcDbSymbolTable
 70
     0
  0
ENDTAB
  0
TABLE
  2
UCS
  5
7
330
0
100
AcDbSymbolTable
 70
     0
  0
ENDTAB
  0
TABLE
  2
APPID
  5
9
330
0
100
AcDbSymbolTable
 70
     1
  0
APPID
  5
12
330
9
100
AcDbSymbolTableRecord
100
AcDbRegAppTableRecord
  2
ACAD
 70
     0
  0
ENDTAB
  0
TABLE
  2
DIMSTYLE
  5
A
330
0
100
AcDbSymbolTable
 70
     1
100
AcDbDimStyleTable
 71
     0
  0
DIMSTYLE
105
E8
330
A
100
AcDbSymbolTableRecord
100
AcDbDimStyleTableRecord
  2
Standard
 70
     0
340
11
  0
ENDTAB
  0
TABLE
  2
BLOCK_RECORD
  5
1
330
0
100
AcDbSymbolTable
 70
     0
  0
BLOCK_RECORD
  5
1E
330
1
100
AcDbSymbolTableRecord
100
AcDbBlockTableRecord
  2
*Model_Space
340
21
  0
BLOCK_RECORD
  5
1A
330
1
100
AcDbSymbolTableRecord
100
AcDbBlockTableRecord
  2
*Paper_Space
340
1D
  0
ENDTAB
  0
ENDSEC
  0
SECTION
  2
BLOCKS
  0
BLOCK
  5
41
330
1E
100
AcDbEntity
  8
0
100
AcDbBlockBegin
  2
*Model_Space
 70
     0
 10
0.0
 20
0.0
 30
0.0
  3
*Model_Space
  1

  0
ENDBLK
  5
42
330
1E
100
AcDbEntity
  8
0
100
AcDbBlockEnd
  0
BLOCK
  5
3F
330
1A
100
AcDbEntity
 67
     1
  8
0
100
AcDbBlockBegin
  2
*Paper_Space
 70
     0
 10
0.0
 20
0.0
 30
0.0
  3
*Paper_Space
  1

  0
ENDBLK
  5
40
330
1A
100
AcDbEntity
 67
     1
  8
0
100
AcDbBlockEnd
  0
ENDSEC
  0
SECTION
  2
ENTITIES
  0
LINE
  5
43
330
1E
100
AcDbEntity
  8
AXE
100
AcDbLine
 10
297.8364079811945
 20
60.57543148862039
 30
0.0
 11
295.7340393667121
 21
72.90520815804786
 31
0.0
  0
LINE
  5
44
330
1E
100
AcDbEntity
  8
AXE
100
AcDbLine
 10
306.0346539632127
 20
64.10538075168354
 30
0.0
 11
318.3992688761459
 21
65.99208278538857
 31
0.0
  0
LINE
  5
45
330
1E
100
AcDbEntity
  8
POINT
100
AcDbLine
 10
302.2169614196792
 20
55.21503100037832
 30
0.0
 11
320.4092800919416
 21
55.21503100037832
 31
0.0
  0
LINE
  5
46
330
1E
100
AcDbEntity
  8
0
100
AcDbLine
 10
302.2169614196792
 20
52.71503100037832
 30
0.0
 11
404.4092800919416
 21
52.7150310003783
 31
0.0
  0
LINE
  5
47
330
1E
100
AcDbEntity
  8
0
100
AcDbLine
 10
390.4092800919416
 20
65.21503100037818
 30
0.0
 11
390.4092800919416
 21
55.21503100037832
 31
0.0
  0
ARC
  5
48
330
1E
100
AcDbEntity
  8
0
100
AcDbCircle
 10
380.4092800919416
 20
65.21503100037818
 30
0.0
 40
10.0
100
AcDbArc
 50
0.0
 51
180.0
  0
LINE
  5
49
330
1E
100
AcDbEntity
  8
0
100
AcDbLine
 10
370.4092800919416
 20
65.21503100037818
 30
0.0
 11
370.4092800919416
 21
55.21503100037818
 31
0.0
  0
LINE
  5
4A
330
1E
100
AcDbEntity
  8
AXE
100
AcDbLine
 10
374.1554143572715
 20
65.21503100037818
 30
0.0
 11
386.6631458266115
 21
65.21503100037818
 31
0.0
  0
CIRCLE
  5
4B
330
1E
100
AcDbEntity
  8
0
100
AcDbCircle
 10
312.2169614196792
 20
65.04873176853606
 30
0.0
 40
2.0
  0
CIRCLE
  5
4C
330
1E
100
AcDbEntity
  8
0
100
AcDbCircle
 10
296.7852236739533
 20
66.74031982333412
 30
0.0
 40
2.0
  0
CIRCLE
  5
4D
330
1E
100
AcDbEntity
  8
0
100
AcDbCircle
 10
286.1085812946907
 20
123.7825154192425
 30
0.0
 40
2.0
  0
CIRCLE
  5
4E
330
1E
100
AcDbEntity
  8
0
100
AcDbCircle
 10
380.4092800919416
 20
65.21503100037818
 30
0.0
 40
2.0
  0
CIRCLE
  5
4F
330
1E
100
AcDbEntity
  8
0
100
AcDbCircle
 10
331.9934713028592
 20
103.6904435907798
 30
0.0
 40
2.0
  0
LINE
  5
50
330
1E
100
AcDbEntity
  8
AXE
100
AcDbLine
 10
325.8111638463926
 20
102.7470925739273
 30
0.0
 11
338.1757787593259
 21
104.6337946076323
 31
0.0
  0
LINE
  5
51
330
1E
100
AcDbEntity
  8
AXE
100
AcDbLine
 10
332.9368223197117
 20
97.50813613431319
 30
0.0
 11
331.0501202860067
 21
109.8727510472464
 31
0.0
  0
LINE
  5
52
330
1E
100
AcDbEntity
  8
0
100
AcDbLine
 10
299.0681179327517
 20
124.7028045252772
 30
0.0
 11
299.0613157207696
 21
124.747383229392
 31
0.0
  0
LINE
  5
53
330
1E
100
AcDbEntity
  8
AXE
100
AcDbLine
 10
292.2908887511574
 20
124.725866436095
 30
0.0
 11
279.9262738382241
 21
122.8391644023899
 31
0.0
  0
LINE
  5
54
330
1E
100
AcDbEntity
  8
AXE
100
AcDbLine
 10
303.9358844246844
 20
67.95958965588707
 30
0.0
 11
291.6061077552569
 21
65.8572210414047
 31
0.0
  0
LINE
  5
55
330
1E
100
AcDbEntity
  8
AXE
100
AcDbLine
 10
311.2736104028268
 20
71.23103922500269
 30
0.0
 11
313.1603124365318
 21
58.86642431206943
 31
0.0
  0
LINE
  5
56
330
1E
100
AcDbEntity
  8
AXE
100
AcDbLine
 10
380.4092800919416
 20
71.46889673504819
 30
0.0
 11
380.4092800919416
 21
58.96116526570819
 31
0.0
  0
LINE
  5
57
330
1E
100
AcDbEntity
  8
0
100
AcDbLine
 10
322.2169614196793
 20
55.21503100037833
 30
0.0
 11
404.4092800919416
 21
55.21503100037831
 31
0.0
  0
CIRCLE
  5
58
330
1E
100
AcDbEntity
  8
POINT
100
AcDbCircle
 10
312.2169614196792
 20
65.04873176853606
 30
0.0
 40
4.0
  0
LINE
  5
59
330
1E
100
AcDbEntity
  8
0
100
AcDbLine
 10
343.2025844264914
 20
103.7131859581788
 30
0.0
 11
367.500305332575
 21
84.36612400782818
 31
0.0
  0
LINE
  5
5A
330
1E
100
AcDbEntity
  8
0
100
AcDbLine
 10
334.4819193143942
 20
92.76101722305375
 30
0.0
 11
358.7796402204779
 21
73.41395527270318
 31
0.0
  0
LINE
  5
5B
330
1E
100
AcDbEntity
  8
0
100
AcDbLine
 10
341.7973820088327
 20
103.5537928422482
 30
0.0
 11
334.3225261984637
 21
94.16621964071248
 31
0.0
  0
LINE
  5
5C
330
1E
100
AcDbEntity
  8
POINT
100
AcDbLine
 10
335.1079945571797
 20
107.601932424753
 30
0.0
 11
341.1744773579686
 21
102.7714950754536
 31
0.0
  0
LINE
  5
5D
330
1E
100
AcDbEntity
  8
POINT
100
AcDbLine
 10
328.8789480485389
 20
99.77895475680657
 30
0.0
 11
334.9454308493278
 21
94.94851740750712
 31
0.0
  0
ARC
  5
5E
330
1E
100
AcDbEntity
  8
0
100
AcDbCircle
 10
342.5796797756273
 20
102.9308881913841
 30
0.0
 40
1.0
100
AcDbArc
 50
51.47144087919134
 51
141.4714408791914
  0
ARC
  5
5F
330
1E
100
AcDbEntity
  8
0
100
AcDbCircle
 10
335.1048239652584
 20
93.54331498984839
 30
0.0
 40
1.0
100
AcDbArc
 50
141.4714408791913
 51
231.4714408791913
  0
ARC
  5
60
330
1E
100
AcDbEntity
  8
POINT
100
AcDbCircle
 10
331.9934713028592
 20
103.6904435907798
 30
0.0
 40
5.0
100
AcDbArc
 50
55.84234682706659
 51
235.8423468270667
  0
LINE
  5
61
330
1E
100
AcDbEntity
  8
0
100
AcDbLine
 10
367.6596984485055
 20
82.96092159016946
 30
0.0
 11
360.1848426381366
 21
73.57334838863373
 31
0.0
  0
ARC
  5
62
330
1E
100
AcDbEntity
  8
0
100
AcDbCircle
 10
366.8774006817109
 20
83.58382624103354
 30
0.0
 40
1.0
100
AcDbArc
 50
321.4714408791913
 51
51.47144087919134
  0
ARC
  5
63
330
1E
100
AcDbEntity
  8
0
100
AcDbCircle
 10
359.4025448713419
 20
74.19625303949782
 30
0.0
 40
1.0
100
AcDbArc
 50
231.4714408791913
 51
321.4714408791913
  0
LINE
  5
64
330
1E
100
AcDbEntity
  8
0
100
AcDbLine
 10
365.7909844959133
 20
80.61402828978554
 30
0.0
 11
374.7640634720852
 21
73.46921353500253
 31
0.0
  0
LINE
  5
65
330
1E
100
AcDbEntity
  8
0
100
AcDbLine
 10
362.0535565907288
 20
75.92024168901767
 30
0.0
 11
371.0557666384921
 21
68.75223131646716
 31
0.0
  0
ARC
  5
66
330
1E
100
AcDbEntity
  8
POINT
100
AcDbCircle
 10
380.4092800919416
 20
65.21503100037818
 30
0.0
 40
3.0
100
AcDbArc
 50
227.1665719339329
 51
51.82668437978617
  0
LINE
  5
67
330
1E
100
AcDbEntity
  8
POINT
100
AcDbLine
 10
302.4948676108172
 20
72.07416161995164
 30
0.0
 11
287.0369016003948
 21
86.20983538614565
 31
0.0
  0
LINE
  5
68
330
1E
100
AcDbEntity
  8
0
100
AcDbLine
 10
244.2257777450405
 20
-2.018436972715008
 30
0.0
 11
301.1460772718825
 21
60.22635375620205
 31
0.0
  0
ARC
  5
69
330
1E
100
AcDbEntity
  8
POINT
100
AcDbCircle
 10
297.7709960899706
 20
66.90840534864588
 30
0.0
 40
7.0
100
AcDbArc
 50
317.5583675276302
 51
47.55836752763014
  0
CIRCLE
  5
6A
330
1E
100
AcDbEntity
  8
0
100
AcDbCircle
 10
239.0600214737347
 20
2.705434548131577
 30
0.0
 40
1.5
  0
CIRCLE
  5
6B
330
1E
100
AcDbEntity
  8
0
100
AcDbCircle
 10
239.0600214737347
 20
2.705434548131577
 30
0.0
 40
3.0
  0
ARC
  5
6C
330
1E
100
AcDbEntity
  8
0
100
AcDbCircle
 10
239.0600214737347
 20
2.705434548131577
 30
0.0
 40
7.0
100
AcDbArc
 50
137.55836752763
 51
317.5583675276305
  0
LINE
  5
6D
330
1E
100
AcDbEntity
  8
0
100
AcDbLine
 10
233.894265202429
 20
7.429306068978156
 30
0.0
 11
246.0159088549197
 21
20.68484370162865
 31
0.0
  0
LINE
  5
6E
330
1E
100
AcDbEntity
  8
0
100
AcDbLine
 10
256.6759494485422
 20
101.98831900869
 30
0.0
 11
257.2460374940626
 21
102.6117347564186
 31
0.0
  0
LINE
  5
6F
330
1E
100
AcDbEntity
  8
0
100
AcDbLine
 10
281.6935780767451
 20
78.22284877410928
 30
0.0
 11
260.2925878099071
 21
97.79317364618794
 31
0.0
  0
LINE
  5
70
330
1E
100
AcDbEntity
  8
0
100
AcDbLine
 10
285.0677720202069
 20
81.91267468218482
 30
0.0
 11
263.6667817533689
 21
101.4829995542634
 31
0.0
  0
ARC
  5
71
330
1E
100
AcDbEntity
  8
0
100
AcDbCircle
 10
261.979684781638
 20
99.63808660022571
 30
0.0
 40
2.5
100
AcDbArc
 50
47.55836752763036
 51
227.5583675276304
  0
LINE
  5
72
330
1E
100
AcDbEntity
  8
0
100
AcDbLine
 10
252.7492014356576
 20
91.52926482932617
 30
0.0
 11
253.8694048806874
 21
41.60295206035442
 31
0.0
  0
ARC
  5
73
330
1E
100
AcDbEntity
  8
0
100
AcDbCircle
 10
267.745427172768
 20
91.86573717830354
 30
0.0
 40
15.0
100
AcDbArc
 50
137.5583675276252
 51
181.2853375075735
  0
ARC
  5
74
330
1E
100
AcDbEntity
  8
0
100
AcDbCircle
 10
263.1497589469835
 20
97.21302444687971
 30
0.0
 40
8.0
100
AcDbArc
 50
47.55836752763013
 51
137.5583675276301
  0
CIRCLE
  5
75
330
1E
100
AcDbEntity
  8
0
100
AcDbCircle
 10
261.7129316506687
 20
66.00508431426979
 30
0.0
 40
4.0
  0
LINE
  5
76
330
1E
100
AcDbEntity
  8
0
100
AcDbLine
 10
258.665765644951
 20
63.4137951884487
 30
0.0
 11
264.0221324747713
 21
69.27121222878326
 31
0.0
  0
LINE
  5
77
330
1E
100
AcDbEntity
  8
0
100
AcDbLine
 10
259.4037308265661
 20
62.73895639975632
 30
0.0
 11
264.7600976563865
 21
68.5963734400909
 31
0.0
  0
LINE
  5
78
330
1E
100
AcDbEntity
  8
AXE
100
AcDbLine
 10
269.0052579864726
 20
67.2485097570819
 30
0.0
 11
254.8397861897107
 21
64.83313402779626
 31
0.0
  0
LINE
  5
79
330
1E
100
AcDbEntity
  8
AXE
100
AcDbLine
 10
260.6387870697775
 20
72.30462793465699
 30
0.0
 11
262.9355109058958
 21
58.83501476805131
 31
0.0
  0
ARC
  5
7A
330
1E
100
AcDbEntity
  8
0
100
AcDbCircle
 10
223.8769534064665
 20
40.93000736239967
 30
0.0
 40
30.0
100
AcDbArc
 50
317.5583675276302
 51
1.285337507573506
  0
LINE
  5
7B
330
1E
100
AcDbEntity
  8
AXE
100
AcDbLine
 10
245.2249098084485
 20
3.756618855372771
 30
0.0
 11
232.895133139021
 21
1.654250240890391
 31
0.0
  0
LINE
  5
7C
330
1E
100
AcDbEntity
  8
AXE
100
AcDbLine
 10
240.1112057809759
 20
-3.459453786582145
 30
0.0
 11
238.0088371664935
 21
8.870322882845314
 31
0.0
  0
LINE
  5
7D
330
1E
100
AcDbEntity
  8
AXE
100
AcDbLine
 10
287.0519323115432
 20
117.600207962776
 30
0.0
 11
285.1652302778382
 21
129.9648228757091
 31
0.0
  0
LINE
  5
7E
330
1E
100
AcDbEntity
  8
POINT
100
AcDbLine
 10
301.1460772718824
 20
60.22635375620207
 30
0.0
 11
302.9367523612764
 21
62.18453382779932
 31
0.0
  0
LINE
  5
7F
330
1E
100
AcDbEntity
  8
0
100
AcDbLine
 10
287.0369016003948
 20
86.2098353861457
 30
0.0
 11
268.5484692565223
 21
103.1167458998005
 31
0.0
  0
ARC
  5
80
330
1E
100
AcDbEntity
  8
0
100
AcDbCircle
 10
283.3806750484761
 20
80.06776172814706
 30
0.0
 40
2.5
100
AcDbArc
 50
227.5583675276304
 51
47.55836752763011
  0
CIRCLE
  5
81
330
1E
100
AcDbEntity
  8
0
100
AcDbCircle
 10
276.6420629282813
 20
64.54870548449735
 30
0.0
 40
5.0
  0
CIRCLE
  5
82
330
1E
100
AcDbEntity
  8
0
100
AcDbCircle
 10
263.970402054979
 20
78.84657283288257
 30
0.0
 40
5.0
  0
CIRCLE
  5
83
330
1E
100
AcDbEntity
  8
0
100
AcDbCircle
 10
263.8201259431264
 20
50.52736703381031
 30
0.0
 40
5.0
  0
LINE
  5
84
330
1E
100
AcDbEntity
  8
AXE
100
AcDbLine
 10
271.2627283907828
 20
80.08999827569468
 30
0.0
 11
257.097256594021
 21
77.67462254640904
 31
0.0
  0
LINE
  5
85
330
1E
100
AcDbEntity
  8
AXE
100
AcDbLine
 10
262.8962574740877
 20
85.14611645326978
 30
0.0
 11
265.1929813102062
 21
71.67650328666408
 31
0.0
  0
LINE
  5
86
330
1E
100
AcDbEntity
  8
AXE
100
AcDbLine
 10
283.9343892640851
 20
65.79213092730945
 30
0.0
 11
269.7689174673232
 21
63.37675519802381
 31
0.0
  0
LINE
  5
87
330
1E
100
AcDbEntity
  8
AXE
100
AcDbLine
 10
275.5679183473901
 20
70.84824910488453
 30
0.0
 11
277.8646421835084
 21
57.37863593827887
 31
0.0
  0
LINE
  5
88
330
1E
100
AcDbEntity
  8
AXE
100
AcDbLine
 10
271.1124522789302
 20
51.77079247662241
 30
0.0
 11
256.9469804821684
 21
49.35541674733677
 31
0.0
  0
LINE
  5
89
330
1E
100
AcDbEntity
  8
AXE
100
AcDbLine
 10
262.7459813622351
 20
56.82691065419749
 30
0.0
 11
265.0427051983535
 21
43.35729748759183
 31
0.0
  0
CIRCLE
  5
8A
330
1E
100
AcDbEntity
  8
0
100
AcDbCircle
 10
264.5707635429679
 20
97.26865170510576
 30
0.0
 40
2.0
  0
LINE
  5
8B
330
1E
100
AcDbEntity
  8
POINT
100
AcDbLine
 10
284.6541753731035
 20
129.6035723177149
 30
0.0
 11
280.1810094573498
 21
124.7119733866426
 31
0.0
  0
LINE
  5
8C
330
1E
100
AcDbEntity
  8
POINT
100
AcDbLine
 10
294.8247347840019
 20
126.5158943017407
 30
0.0
 11
296.6038185761229
 21
124.8889953894783
 31
0.0
  0
LINE
  5
8D
330
1E
100
AcDbEntity
  8
POINT
100
AcDbLine
 10
254.6811357508155
 20
96.82676695464657
 30
0.0
 11
263.5367179301969
 21
88.72870149033813
 31
0.0
  0
LINE
  5
8E
330
1E
100
AcDbEntity
  8
POINT
100
AcDbLine
 10
288.8551841691642
 20
131.9748026707483
 30
0.0
 11
255.7880835232382
 21
95.81450877160795
 31
0.0
  0
LINE
  5
8F
330
1E
100
AcDbEntity
  8
POINT
100
AcDbLine
 10
262.3095649665885
 20
105.1687817380056
 30
0.0
 11
254.6811357508155
 21
96.82676695464657
 31
0.0
  0
LINE
  5
90
330
1E
100
AcDbEntity
  8
0
100
AcDbLine
 10
280.1810094573497
 20
124.7119733866425
 30
0.0
 11
262.3095649665888
 21
105.1687817380059
 31
0.0
  0
LINE
  5
91
330
1E
100
AcDbEntity
  8
0
100
AcDbLine
 10
404.4092800919416
 20
55.21503100037831
 30
0.0
 11
404.4092800919416
 21
52.7150310003783
 31
0.0
  0
LINE
  5
92
330
1E
100
AcDbEntity
  8
AXE
100
AcDbLine
 10
287.978683821021
 20
58.89457623550288
 30
0.0
 11
285.8763152065387
 21
71.22435290493033
 31
0.0
  0
LINE
  5
93
330
1E
100
AcDbEntity
  8
AXE
100
AcDbLine
 10
295.2072027863162
 20
125.1708633615796
 30
0.0
 11
282.8425878733829
 21
123.2841613278746
 31
0.0
  0
LINE
  5
94
330
1E
100
AcDbEntity
  8
0
100
AcDbLine
 10
288.515246803835
 20
129.2786923748268
 30
0.0
 11
334.4001368120036
 21
109.186620546364
 31
0.0
  0
LINE
  5
95
330
1E
100
AcDbEntity
  8
0
100
AcDbLine
 10
290.8876393536128
 20
65.63646331795204
 30
0.0
 11
280.2109969743502
 21
122.6786589138604
 31
0.0
  0
LINE
  5
96
330
1E
100
AcDbEntity
  8
0
100
AcDbLine
 10
311.5631728268961
 20
59.08445809306252
 30
0.0
 11
296.1314350811701
 21
60.7760461478606
 31
0.0
  0
LINE
  5
97
330
1E
100
AcDbEntity
  8
0
100
AcDbLine
 10
317.5580954764508
 20
62.31518334430894
 30
0.0
 11
337.3346053596309
 21
100.9568951665527
 31
0.0
  0
ARC
  5
98
330
1E
100
AcDbEntity
  8
0
100
AcDbCircle
 10
331.9934713028592
 20
103.6904435907798
 30
0.0
 40
6.0
100
AcDbArc
 50
332.8970073377507
 51
66.35235427410636
  0
ARC
  5
99
330
1E
100
AcDbEntity
  8
0
100
AcDbCircle
 10
286.1085812946907
 20
123.7825154192425
 30
0.0
 40
6.0
100
AcDbArc
 50
66.35235427410636
 51
190.6014417379946
  0
ARC
  5
9A
330
1E
100
AcDbEntity
  8
0
100
AcDbCircle
 10
296.7852236739533
 20
66.74031982333413
 30
0.0
 40
6.0
100
AcDbArc
 50
191.6021929143901
 51
264.7451088913917
  0
ARC
  5
9B
330
1E
100
AcDbEntity
  8
0
100
AcDbCircle
 10
312.2169614196792
 20
65.04873176853606
 30
0.0
 40
6.0
100
AcDbArc
 50
263.7443577149963
 51
332.8970073377507
  0
LINE
  5
9C
330
1E
100
AcDbEntity
  8
0
100
AcDbLine
 10
282.6527778813472
 20
109.6329335676777
 30
0.0
 11
272.98446097189
 21
99.06021403294964
 31
0.0
  0
LINE
  5
9D
330
1E
100
AcDbEntity
  8
POINT
100
AcDbLine
 10
272.98446097189
 20
99.06021403294968
 30
0.0
 11
269.9476864227743
 21
95.73937071568165
 31
0.0
  0
LINE
  5
9E
330
1E
100
AcDbEntity
  8
POINT
100
AcDbLine
 10
282.6527778813472
 20
109.6329335676777
 30
0.0
 11
296.6038185761229
 21
124.8889953894783
 31
0.0
  0
LINE
  5
9F
330
1E
100
AcDbEntity
  8
POINT
100
AcDbLine
 10
266.5734924793125
 20
92.0495448076061
 30
0.0
 11
263.5367179301969
 21
88.72870149033813
 31
0.0
  0
LINE
  5
A0
330
1E
100
AcDbEntity
  8
0
100
AcDbLine
 10
269.9476864227743
 20
95.73937071568165
 30
0.0
 11
266.5734924793125
 21
92.0495448076061
 31
0.0
  0
LINE
  5
A1
330
1E
100
AcDbEntity
  8
0
100
AcDbLine
 10
322.2169614196793
 20
65.04873176853606
 30
0.0
 11
322.2169614196793
 21
52.71503100037832
 31
0.0
  0
LINE
  5
A2
330
1E
100
AcDbEntity
  8
POINT
100
AcDbLine
 10
302.2169614196792
 20
65.04873176853606
 30
0.0
 11
302.2169614196792
 21
60.10896614488217
 31
0.0
  0
ARC
  5
A3
330
1E
100
AcDbEntity
  8
POINT
100
AcDbCircle
 10
312.2169614196792
 20
65.04873176853606
 30
0.0
 40
9.999999999999987
100
AcDbArc
 50
26.02710969189121
 51
179.9999999999998
  0
ARC
  5
A4
330
1E
100
AcDbEntity
  8
0
100
AcDbCircle
 10
312.2169614196792
 20
65.04873176853606
 30
0.0
 40
9.999999999999987
100
AcDbArc
 50
0.0
 51
26.02710969189134
  0
LINE
  5
A5
330
1E
100
AcDbEntity
  8
0
100
AcDbLine
 10
302.2169614196792
 20
60.10896614488217
 30
0.0
 11
302.2169614196792
 21
52.71503100037832
 31
0.0
  0
LINE
  5
A6
330
1E
100
AcDbEntity
  8
POINT
100
AcDbLine
 10
374.7640634720852
 20
73.46921353500253
 30
0.0
 11
382.2634070847832
 21
67.57346545874582
 31
0.0
  0
LINE
  5
A7
330
1E
100
AcDbEntity
  8
POINT
100
AcDbLine
 10
371.0557666384921
 20
68.75223131646716
 30
0.0
 11
378.5551816676966
 21
62.85657408255833
 31
0.0
  0
LINE
  5
A8
330
1E
100
AcDbEntity
  8
POINT
100
AcDbLine
 10
399.4711291871748
 20
52.7150310003783
 30
0.0
 11
399.4711291871748
 21
55.21503100037831
 31
0.0
  0
LINE
  5
A9
330
1E
100
AcDbEntity
  8
POINT
100
AcDbLine
 10
395.4711291871748
 20
52.7150310003783
 30
0.0
 11
395.4711291871748
 21
55.21503100037831
 31
0.0
  0
LINE
  5
AA
330
1E
100
AcDbEntity
  8
0
100
AcDbLine
 10
294.8247347840019
 20
126.5158943017407
 30
0.0
 11
287.7482363967415
 21
132.9870608537868
 31
0.0
  0
LINE
  5
AB
330
1E
100
AcDbEntity
  8
0
100
AcDbLine
 10
287.7482363967415
 20
132.9870608537868
 30
0.0
 11
284.6541753731035
 21
129.6035723177149
 31
0.0
  0
CIRCLE
  5
AC
330
1E
100
AcDbEntity
  8
0
100
AcDbCircle
 10
301.6918368561494
 20
139.3439741155568
 30
0.0
 40
2.0
  0
LINE
  5
AD
330
1E
100
AcDbEntity
  8
AXE
100
AcDbLine
 10
307.8741443126161
 20
140.2873251324093
 30
0.0
 11
295.5095293996828
 21
138.4006230987043
 31
0.0
  0
LINE
  5
AE
330
1E
100
AcDbEntity
  8
AXE
100
AcDbLine
 10
302.6351878730019
 20
133.1616666590903
 30
0.0
 11
300.7484858392969
 21
145.5262815720234
 31
0.0
  0
LINE
  5
AF
330
1E
100
AcDbEntity
  8
0
100
AcDbLine
 10
287.7482363967415
 20
132.9870608537868
 30
0.0
 11
297.2640457664587
 21
143.3930068477111
 31
0.0
  0
ARC
  5
B0
330
1E
100
AcDbEntity
  8
0
100
AcDbCircle
 10
301.6918368561494
 20
139.3439741155568
 30
0.0
 40
6.000000000000027
100
AcDbArc
 50
317.5583675276302
 51
137.5583675276301
  0
LINE
  5
B1
330
1E
100
AcDbEntity
  8
0
100
AcDbLine
 10
297.1574696167227
 20
125.4944365667992
 30
0.0
 11
306.11962794584
 21
135.2949413834026
 31
0.0
  0
LINE
  5
B2
330
1E
100
AcDbEntity
  8
CORNIERE
100
AcDbLine
 10
322.9742603599294
 20
104.1283242819531
 30
0.0
 11
284.247875919812
 21
101.1107885830812
 31
0.0
  0
LINE
  5
B3
330
1E
100
AcDbEntity
  8
CORNIERE
100
AcDbLine
 10
293.8654187367172
 20
126.9359595329052
 30
0.0
 11
228.576136818375
 21
121.8486594456236
 31
0.0
  0
LINE
  5
B4
330
1E
100
AcDbEntity
  8
CORNIERE
100
AcDbLine
 10
279.4220168185531
 20
125.8105386723906
 30
0.0
 11
279.4997007249603
 21
124.8135606331715
 31
0.0
  0
LINE
  5
B5
330
1E
100
AcDbEntity
  8
CORNIERE
100
AcDbLine
 10
238.5459172105667
 20
122.6254985096956
 30
0.0
 11
238.623601116974
 21
121.6285204704764
 31
0.0
  0
LINE
  5
B6
330
1E
100
AcDbEntity
  8
0
100
AcDbLine
 10
228.576136818375
 20
121.8486594456236
 30
0.0
 11
228.6538207247822
 21
120.8516814064044
 31
0.0
  0
LINE
  5
B7
330
1E
100
AcDbEntity
  8
CORNIERE
100
AcDbLine
 10
295.8100338901108
 20
126.0844516109347
 30
0.0
 11
228.6538207247822
 21
120.8516814064044
 31
0.0
  0
LINE
  5
B8
330
1E
100
AcDbEntity
  8
CORNIERE
100
AcDbLine
 10
228.6538207247822
 20
120.8516814064044
 30
0.0
 11
284.247875919812
 21
101.1107885830812
 31
0.0
  0
LINE
  5
B9
330
1E
100
AcDbEntity
  8
CORNIERE
100
AcDbLine
 10
322.1625839719946
 20
114.5451991682654
 30
0.0
 11
322.9742603599294
 21
104.1283242819531
 31
0.0
  0
LINE
  5
BA
330
1E
100
AcDbEntity
  8
AXE
100
AcDbLine
 10
321.9812606928631
 20
113.0621124387943
 30
0.0
 11
307.8157888961011
 21
110.6467367095087
 31
0.0
  0
CIRCLE
  5
BB
330
1E
100
AcDbEntity
  8
0
100
AcDbCircle
 10
314.6889343570592
 20
111.8186869959822
 30
0.0
 40
2.5
  0
LINE
  5
BC
330
1E
100
AcDbEntity
  8
AXE
100
AcDbLine
 10
313.6147897761679
 20
118.1182306163694
 30
0.0
 11
315.9115136122862
 21
104.6486174497637
 31
0.0
  0
LINE
  5
BD
330
1E
100
AcDbEntity
  8
0
100
AcDbLine
 10
312.7054129456683
 20
110.3100285147317
 30
0.0
 11
316.0114343275366
 21
113.9253048005263
 31
0.0
  0
LINE
  5
BE
330
1E
100
AcDbEntity
  8
0
100
AcDbLine
 10
313.2894901275309
 20
109.7889496935352
 30
0.0
 11
316.5955115093993
 21
113.4042259793299
 31
0.0
  0
LINE
  5
BF
330
1E
100
AcDbEntity
  8
0
100
AcDbLine
 10
296.806917445979
 20
117.006337251327
 30
0.0
 11
300.1129388278473
 21
120.6216135371216
 31
0.0
  0
LINE
  5
C0
330
1E
100
AcDbEntity
  8
0
100
AcDbLine
 10
296.2228402641164
 20
117.5274160725234
 30
0.0
 11
299.5288616459847
 21
121.1426923583181
 31
0.0
  0
CIRCLE
  5
C1
330
1E
100
AcDbEntity
  8
0
100
AcDbCircle
 10
298.2063616755072
 20
119.036074553774
 30
0.0
 40
2.5
  0
LINE
  5
C2
330
1E
100
AcDbEntity
  8
AXE
100
AcDbLine
 10
305.4986880113111
 20
120.2794999965861
 30
0.0
 11
291.3332162145492
 21
117.8641242673004
 31
0.0
  0
LINE
  5
C3
330
1E
100
AcDbEntity
  8
AXE
100
AcDbLine
 10
297.132217094616
 20
125.3356181741612
 30
0.0
 11
299.4289409307343
 21
111.8660050075555
 31
0.0
  0
LINE
  5
C4
330
1E
100
AcDbEntity
  8
CORNIERE
100
AcDbLine
 10
289.3917972107449
 20
126.5873777364626
 30
0.0
 11
289.469481117152
 21
125.5903996972434
 31
0.0
  0
LINE
  5
C5
330
1E
100
AcDbEntity
  8
0
100
AcDbLine
 10
317.7214000483315
 20
171.542369429198
 30
0.0
 11
225.265374166957
 21
164.3382536123891
 31
0.0
  0
LINE
  5
C6
330
1E
100
AcDbEntity
  8
0
100
AcDbLine
 10
227.2074718271369
 20
139.4138026319096
 30
0.0
 11
225.265374166957
 21
164.3382536123891
 31
0.0
  0
LINE
  5
C7
330
1E
100
AcDbEntity
  8
0
100
AcDbLine
 10
237.1772522193287
 20
140.1906416959816
 30
0.0
 11
235.6235740911847
 21
160.1302024803651
 31
0.0
  0
LINE
  5
C8
330
1E
100
AcDbEntity
  8
0
100
AcDbLine
 10
278.0533518273151
 20
143.3756818586767
 30
0.0
 11
276.4996736991711
 21
163.3152426430602
 31
0.0
  0
LINE
  5
C9
330
1E
100
AcDbEntity
  8
0
100
AcDbLine
 10
317.7990839547387
 20
170.5453913899788
 30
0.0
 11
317.7214000483315
 21
171.542369429198
 31
0.0
  0
LINE
  5
CA
330
1E
100
AcDbEntity
  8
0
100
AcDbLine
 10
317.7990839547387
 20
170.5453913899788
 30
0.0
 11
225.3430580733641
 21
163.3412755731699
 31
0.0
  0
LINE
  5
CB
330
1E
100
AcDbEntity
  8
0
100
AcDbLine
 10
288.0231322195068
 20
144.1525209227486
 30
0.0
 11
278.0533518273151
 21
143.3756818586767
 31
0.0
  0
LINE
  5
CC
330
1E
100
AcDbEntity
  8
0
100
AcDbLine
 10
276.4996736991711
 20
163.3152426430602
 30
0.0
 11
235.6235740911847
 21
160.1302024803651
 31
0.0
  0
LINE
  5
CD
330
1E
100
AcDbEntity
  8
0
100
AcDbLine
 10
288.0231322195068
 20
144.1525209227486
 30
0.0
 11
292.4992712386928
 21
168.5740457777002
 31
0.0
  0
LINE
  5
CE
330
1E
100
AcDbEntity
  8
0
100
AcDbLine
 10
237.1772522193287
 20
140.1906416959816
 30
0.0
 11
227.2074718271369
 21
139.4138026319096
 31
0.0
  0
LINE
  5
CF
330
1E
100
AcDbEntity
  8
0
100
AcDbLine
 10
301.8815963458934
 20
-19.99860021685715
 30
0.0
 11
322.2169614196793
 21
-19.99860021685716
 31
0.0
  0
LINE
  5
D0
330
1E
100
AcDbEntity
  8
0
100
AcDbLine
 10
302.2169614196792
 20
33.00139978314284
 30
0.0
 11
302.2169614196792
 21
25.50139978314284
 31
0.0
  0
LINE
  5
D1
330
1E
100
AcDbEntity
  8
0
100
AcDbLine
 10
404.4092800919416
 20
14.50139978314284
 30
0.0
 11
404.4092800919416
 21
-1.498600216857151
 31
0.0
  0
LINE
  5
D2
330
1E
100
AcDbEntity
  8
0
100
AcDbLine
 10
302.2169614196792
 20
33.00139978314284
 30
0.0
 11
322.2169614196793
 21
33.00139978314284
 31
0.0
  0
LINE
  5
D3
330
1E
100
AcDbEntity
  8
0
100
AcDbLine
 10
302.2169614196792
 20
32.00139978314285
 30
0.0
 11
326.6597894560177
 21
32.00139978314285
 31
0.0
  0
LINE
  5
D4
330
1E
100
AcDbEntity
  8
0
100
AcDbLine
 10
301.8815963458934
 20
-18.99860021685715
 30
0.0
 11
326.6597894560177
 21
-18.99860021685716
 31
0.0
  0
CIRCLE
  5
D5
330
1E
100
AcDbEntity
  8
0
100
AcDbCircle
 10
397.4092800919416
 20
6.501399783142829
 30
0.0
 40
2.0
  0
LINE
  5
D6
330
1E
100
AcDbEntity
  8
0
100
AcDbLine
 10
322.2169614196793
 20
33.00139978314284
 30
0.0
 11
404.4092800919416
 21
14.50139978314284
 31
0.0
  0
LINE
  5
D7
330
1E
100
AcDbEntity
  8
0
100
AcDbLine
 10
322.2169614196793
 20
-19.99860021685716
 30
0.0
 11
404.4092800919416
 21
-1.498600216857151
 31
0.0
  0
LINE
  5
D8
330
1E
100
AcDbEntity
  8
0
100
AcDbLine
 10
302.2169614196792
 20
25.50139978314284
 30
0.0
 11
309.7169614196793
 21
25.50139978314284
 31
0.0
  0
LINE
  5
D9
330
1E
100
AcDbEntity
  8
0
100
AcDbLine
 10
302.2169614196792
 20
20.50139978314284
 30
0.0
 11
309.7169614196793
 21
20.50139978314284
 31
0.0
  0
LINE
  5
DA
330
1E
100
AcDbEntity
  8
0
100
AcDbLine
 10
301.8815963458934
 20
-7.498600216857155
 30
0.0
 11
309.7169614196793
 21
-7.498600216857157
 31
0.0
  0
LINE
  5
DB
330
1E
100
AcDbEntity
  8
0
100
AcDbLine
 10
301.8815963458934
 20
-12.49860021685715
 30
0.0
 11
309.7169614196793
 21
-12.49860021685715
 31
0.0
  0
ARC
  5
DC
330
1E
100
AcDbEntity
  8
0
100
AcDbCircle
 10
309.7169614196793
 20
23.00139978314284
 30
0.0
 40
2.5
100
AcDbArc
 50
270.0
 51
90.0
  0
ARC
  5
DD
330
1E
100
AcDbEntity
  8
0
100
AcDbCircle
 10
309.7169614196793
 20
-9.998600216857155
 30
0.0
 40
2.5
100
AcDbArc
 50
270.0
 51
90.0
  0
LINE
  5
DE
330
1E
100
AcDbEntity
  8
0
100
AcDbLine
 10
302.2169614196792
 20
-12.49860021685715
 30
0.0
 11
302.2169614196792
 21
-19.99860021685715
 31
0.0
  0
LINE
  5
DF
330
1E
100
AcDbEntity
  8
0
100
AcDbLine
 10
302.2169614196792
 20
20.50139978314284
 30
0.0
 11
302.2169614196792
 21
-7.498600216857156
 31
0.0
  0
LINE
  5
E0
330
1E
100
AcDbEntity
  8
0
100
AcDbLine
 10
370.4092800919416
 20
14.00139978314284
 30
0.0
 11
370.4092800919416
 21
-0.9986002168571559
 31
0.0
  0
LINE
  5
E1
330
1E
100
AcDbEntity
  8
0
100
AcDbLine
 10
390.4092800919415
 20
14.00139978314284
 30
0.0
 11
390.4092800919416
 21
-0.9986002168571561
 31
0.0
  0
LINE
  5
E2
330
1E
100
AcDbEntity
  8
0
100
AcDbLine
 10
390.4092800919415
 20
14.00139978314284
 30
0.0
 11
370.4092800919416
 21
14.00139978314284
 31
0.0
  0
LINE
  5
E3
330
1E
100
AcDbEntity
  8
0
100
AcDbLine
 10
390.4092800919416
 20
-0.9986002168571561
 30
0.0
 11
370.4092800919416
 21
-0.9986002168571559
 31
0.0
  0
LINE
  5
E4
330
1E
100
AcDbEntity
  8
0
100
AcDbLine
 10
390.4092800919415
 20
12.50139978314284
 30
0.0
 11
370.4092800919415
 21
12.50139978314284
 31
0.0
  0
LINE
  5
E5
330
1E
100
AcDbEntity
  8
0
100
AcDbLine
 10
390.4092800919416
 20
0.5013997831428441
 30
0.0
 11
370.4092800919416
 21
0.5013997831428441
 31
0.0
  0
LINE
  5
E6
330
1E
100
AcDbEntity
  8
POINT
100
AcDbLine
 10
370.4092800919416
 20
56.71503100037831
 30
0.0
 11
390.4092800919415
 21
56.71503100037831
 31
0.0
  0
CIRCLE
  5
E7
330
1E
100
AcDbEntity
  8
0
100
AcDbCircle
 10
381.1013651657184
 20
6.501399783142829
 30
0.0
 40
2.0
  0
ENDSEC
  0
SECTION
  2
OBJECTS
  0
DICTIONARY
  5
C
330
0
100
AcDbDictionary
281
     1
  3
ACAD_COLOR
350
F1
  3
ACAD_GROUP
350
D
  3
ACAD_LAYOUT
350
19
  3
ACAD_MATERIAL
350
F0
  3
ACAD_MLINESTYLE
350
16
  3
ACAD_PLOTSETTINGS
350
18
  3
ACAD_PLOTSTYLENAME
350
E
  3
ACAD_TABLESTYLE
350
F2
  3
ACDBHEADERROUNDTRIPXREC
350
101
  3
AcDbVariableDictionary
350
EC
  0
DICTIONARY
  5
F1
102
{ACAD_REACTORS
330
C
102
}
330
C
100
AcDbDictionary
281
     1
  0
DICTIONARY
  5
D
102
{ACAD_REACTORS
330
C
102
}
330
C
100
AcDbDictionary
281
     1
  0
DICTIONARY
  5
19
102
{ACAD_REACTORS
330
C
102
}
330
C
100
AcDbDictionary
281
     1
  3
Model
350
21
  3
Présentation1
350
1D
  0
DICTIONARY
  5
F0
102
{ACAD_REACTORS
330
C
102
}
330
C
100
AcDbDictionary
281
     1
  0
DICTIONARY
  5
16
102
{ACAD_REACTORS
330
C
102
}
330
C
100
AcDbDictionary
281
     1
  3
Standard
350
17
  0
DICTIONARY
  5
18
102
{ACAD_REACTORS
330
C
102
}
330
C
100
AcDbDictionary
281
     1
  0
ACDBDICTIONARYWDFLT
  5
E
102
{ACAD_REACTORS
330
C
102
}
330
C
100
AcDbDictionary
281
     1
  3
Normal
350
F
100
AcDbDictionaryWithDefault
340
F
  0
DICTIONARY
  5
F2
102
{ACAD_REACTORS
330
C
102
}
330
C
100
AcDbDictionary
281
     1
  3
Standard
350
F3
  0
DICTIONARY
  5
101
102
{ACAD_REACTORS
330
C
102
}
330
C
100
AcDbDictionary
281
     1
  0
DICTIONARY
  5
EC
102
{ACAD_REACTORS
330
C
102
}
330
C
100
AcDbDictionary
281
     1
  3
CTABLESTYLE
350
F7
  3
DIMASSOC
350
EE
  3
HIDETEXT
350
ED
  3
PROJECTNAME
350
FF
  0
LAYOUT
  5
21
102
{ACAD_XDICTIONARY
360
104
102
}
102
{ACAD_REACTORS
330
19
102
}
330
19
100
AcDbPlotSettings
  1

  2

  4

  6

 40
0.0
 41
0.0
 42
0.0
 43
0.0
 44
0.0
 45
0.0
 46
0.0
 47
0.0
 48
0.0
 49
0.0
140
0.0
141
0.0
142
1.0
143
1.0
 70
  1712
 72
     0
 73
     0
 74
     0
  7

 75
     0
147
1.0
148
0.0
149
0.0
100
AcDbLayout
  1
Model
 70
     1
 71
     0
 10
0.0
 20
0.0
 11
12.0
 21
9.0
 12
0.0
 22
0.0
 32
0.0
 14
0.0
 24
0.0
 34
0.0
 15
0.0
 25
0.0
 35
0.0
146
0.0
 13
0.0
 23
0.0
 33
0.0
 16
1.0
 26
0.0
 36
0.0
 17
0.0
 27
1.0
 37
0.0
 76
     0
330
1E
  0
LAYOUT
  5
1D
102
{ACAD_XDICTIONARY
360
102
102
}
102
{ACAD_REACTORS
330
19
102
}
330
19
100
AcDbPlotSettings
  1

  2

  4

  6

 40
0.0
 41
0.0
 42
0.0
 43
0.0
 44
0.0
 45
0.0
 46
0.0
 47
0.0
 48
0.0
 49
0.0
140
0.0
141
0.0
142
1.0
143
1.0
 70
   688
 72
     0
 73
     0
 74
     5
  7

 75
    16
147
1.0
148
0.0
149
0.0
100
AcDbLayout
  1
Présentation1
 70
     1
 71
     1
 10
0.0
 20
0.0
 11
420.0
 21
297.0
 12
0.0
 22
0.0
 32
0.0
 14
1.000000000000000E+20
 24
1.000000000000000E+20
 34
1.000000000000000E+20
 15
-1.000000000000000E+20
 25
-1.000000000000000E+20
 35
-1.000000000000000E+20
146
0.0
 13
0.0
 23
0.0
 33
0.0
 16
1.0
 26
0.0
 36
0.0
 17
0.0
 27
1.0
 37
0.0
 76
     0
330
1A
  0
MLINESTYLE
  5
17
102
{ACAD_REACTORS
330
16
102
}
330
16
100
AcDbMlineStyle
  2
STANDARD
 70
     0
  3

 62
   256
 51
90.0
 52
90.0
 71
     2
 49
0.5
 62
   256
  6
BYLAYER
 49
-0.5
 62
   256
  6
BYLAYER
  0
ACDBPLACEHOLDER
  5
F
102
{ACAD_REACTORS
330
E
102
}
330
E
  0
TABLESTYLE
  5
F3
102
{ACAD_REACTORS
330
F2
102
}
330
F2
100
AcDbTableStyle
  3
Standard
 70
     0
 71
     0
 40
0.06
 41
0.06
280
     0
281
     0
  7
STANDARD
140
0.18
170
     2
 62
     0
 63
     7
283
     0
274
    -2
284
     1
 64
     0
275
    -2
285
     1
 65
     0
276
    -2
286
     1
 66
     0
277
    -2
287
     1
 67
     0
278
    -2
288
     1
 68
     0
279
    -2
289
     1
 69
     0
  7
STANDARD
140
0.25
170
     5
 62
     0
 63
     7
283
     0
274
    -2
284
     1
 64
     0
275
    -2
285
     1
 65
     0
276
    -2
286
     1
 66
     0
277
    -2
287
     1
 67
     0
278
    -2
288
     1
 68
     0
279
    -2
289
     1
 69
     0
  7
STANDARD
140
0.18
170
     5
 62
     0
 63
     7
283
     0
274
    -2
284
     1
 64
     0
275
    -2
285
     1
 65
     0
276
    -2
286
     1
 66
     0
277
    -2
287
     1
 67
     0
278
    -2
288
     1
 68
     0
279
    -2
289
     1
 69
     0
  0
DICTIONARYVAR
  5
F7
102
{ACAD_REACTORS
330
EC
102
}
330
EC
100
DictionaryVariables
280
     0
  1
STANDARD
  0
DICTIONARYVAR
  5
EE
102
{ACAD_REACTORS
330
EC
102
}
330
EC
100
DictionaryVariables
280
     0
  1
2
  0
DICTIONARYVAR
  5
ED
102
{ACAD_REACTORS
330
EC
102
}
330
EC
100
DictionaryVariables
280
     0
  1
1
  0
DICTIONARYVAR
  5
FF
102
{ACAD_REACTORS
330
EC
102
}
330
EC
100
DictionaryVariables
280
     0
  1

  0
DICTIONARY
  5
104
330
21
100
AcDbDictionary
280
     1
281
     1
  3
ACAD_XREC_ROUNDTRIP
360
105
  0
DICTIONARY
  5
102
330
1D
100
AcDbDictionary
280
     1
281
     1
  3
ACAD_XREC_ROUNDTRIP
360
103
  0
XRECORD
  5
105
102
{ACAD_REACTORS
330
104
102
}
330
104
100
AcDbXrecord
280
     1
102
SHADEPLOT
 70
     0
102
SHADEPLOTRESLEVEL
 70
     2
102
SHADEPLOTCUSTOMDPI
 70
   300
  0
XRECORD
  5
103
102
{ACAD_REACTORS
330
102
102
}
330
102
100
AcDbXrecord
280
     1
102
SHADEPLOT
 70
     0
102
SHADEPLOTRESLEVEL
 70
     2
102
SHADEPLOTCUSTOMDPI
 70
   300
  0
ENDSEC
  0
EOF
