 0
SECTION
 2
HEADER
 9
$ACADVER
 1
AC1004
 9
$EXTMAX
 10
-373.99114990
 20
2584.31323242
 9
$EXTMIN
 10
884.16821289
 20
3528.32788086
 9
$LIMMAX
 10
-373.99114990
 20
2584.31323242
 9
$LIMMIN
 10
884.16821289
 20
3528.32788086
 9
$GRIDUNIT
 10
0.50000000
 20
0.50000000
 9
$SNAPBASE
 10
0.00000000
 20
0.00000000
 9
$GRIDMODE
 70
0
 9
$SNAPANG
 50
0.00000000
 9
$REGENMODE
 70
1
 9
$FILLMODE
 70
1
 9
$ORTHOMODE
 70
0
 9
$QTEXTMODE
 70
0
 9
$DRAGMODE
 70
2
 9
$LTSCALE
 40
1.00000000
 9
$AUNITS
 70
1
 9
$AUPREC
 70
4
 9
$AXISMODE
 70
0
 9
$BLIPMODE
 70
1
 9
$CELTYPE
 6
BYLAYER
 9
$TEXTSTYLE
 7
STANDARD
 9
$CHAMFERA
 40
0.00000000
 9
$CHAMFERB
 40
0.00000000
 0
ENDSEC
 0
SECTION
 2
TABLES
 0
TABLE
 2
LTYPE
 70
6
  0
LTYPE
 2
CONTINUOUS
 70
64
 3
Solid line
 72
65
 73
0
 40
0.00000000
  0
LTYPE
 2
DASHED
 70
64
 3
__ __ __ __ __ __ __ __ __ __ __ __ __ __ __
 72
65
 73
2
 40
0.75000000
 49
-0.25000000
 49
0.50000000
  0
LTYPE
 2
CENTER
 70
64
 3
____ _ ____ _ ____ _ ____ _ ____ _ ____ _ ____
 72
65
 73
4
 40
2.00000000
 49
-0.25000000
 49
0.25000000
 49
-0.25000000
 49
1.25000000
  0
LTYPE
 2
PHANTOM
 70
64
 3
_____ _ _ _____ _ _ _____ _ _ _____ _ _ _____
 72
65
 73
6
 40
2.50000000
 49
-0.25000000
 49
0.25000000
 49
-0.25000000
 49
0.25000000
 49
-0.25000000
 49
1.25000000
  0
LTYPE
 2
DOT
 70
64
 3
...............................................
 72
65
 73
2
 40
0.25000000
 49
-0.25000000
 49
0.00000000
  0
LTYPE
 2
DASH-DOT
 70
64
 3
__ . __ . __ . __ . __ . __ . __ . __ . __ . __
 72
65
 73
4
 40
1.00000000
 49
-0.25000000
 49
0.00000000
 49
-0.25000000
 49
0.50000000
 0
ENDTAB
 0
TABLE
 2
LAYER
 70
2
 0
LAYER
 2
0
 70
0
 62
7
 6
CONTINUOUS
 0
LAYER
 2
VUE_1
 70
0
 62
7
 6
CONTINUOUS
 0
ENDTAB
 0
TABLE
 2
STYLE
 70
1
 0
STYLE
 2
STANDARD
 70
0
 40
0.00000000
 41
1.00000000
 50
0.00000000
 71
0
 42
0.20000000
 3
MONOTXT
 4

 0
ENDTAB
 0
ENDSEC
 0
SECTION
 2
BLOCKS
 0
ENDSEC
 0
SECTION
 2
ENTITIES
 0
POLYLINE
 8
VUE_1
 66
1
 62
4
 0
VERTEX
 8
VUE_1
 10
222.41789534
 20
1940.16704044
 0
VERTEX
 8
VUE_1
 10
222.41789534
 20
2025.58008693
 0
SEQEND
 0
POLYLINE
 8
VUE_1
 66
1
 62
4
 0
VERTEX
 8
VUE_1
 10
212.24641596
 20
1940.16704044
 0
VERTEX
 8
VUE_1
 10
212.24641596
 20
2025.58008693
 0
SEQEND
 0
POLYLINE
 8
VUE_1
 66
1
 62
4
 0
VERTEX
 8
VUE_1
 10
212.24641596
 20
2025.52008693
 0
VERTEX
 8
VUE_1
 10
212.24641596
 20
2025.52008693
 0
VERTEX
 8
VUE_1
 10
212.24641596
 20
2025.52008693
 0
VERTEX
 8
VUE_1
 10
212.24641596
 20
2025.52008693
 0
VERTEX
 8
VUE_1
 10
217.33215565
 20
2025.52008693
 0
SEQEND
 0
POLYLINE
 8
VUE_1
 66
1
 62
4
 0
VERTEX
 8
VUE_1
 10
217.33215565
 20
2025.52008693
 0
VERTEX
 8
VUE_1
 10
222.41789534
 20
2025.52008693
 0
SEQEND
 0
POLYLINE
 8
VUE_1
 66
1
 62
4
 0
VERTEX
 8
VUE_1
 10
222.41789534
 20
2025.52008693
 0
VERTEX
 8
VUE_1
 10
222.41789534
 20
2025.52008693
 0
VERTEX
 8
VUE_1
 10
222.41789534
 20
2025.52008693
 0
VERTEX
 8
VUE_1
 10
222.41789534
 20
2025.52008693
 0
SEQEND
 0
POLYLINE
 8
VUE_1
 66
1
 62
4
 0
VERTEX
 8
VUE_1
 10
7.08878083
 20
2025.52008693
 0
VERTEX
 8
VUE_1
 10
212.24641596
 20
2025.52008693
 0
SEQEND
 0
TEXT
 8
VUE_1
 62
2
 10
7.08878083
 20
2050.52008693
 40
50.00000000
 41
0.48750000
 1
10,2
 7
STANDARD
 0
POLYLINE
 8
VUE_1
 66
1
 62
4
 0
VERTEX
 8
VUE_1
 10
222.41789534
 20
1940.16704044
 0
VERTEX
 8
VUE_1
 10
222.41789534
 20
2025.58008693
 0
SEQEND
 0
POLYLINE
 8
VUE_1
 66
1
 62
4
 0
VERTEX
 8
VUE_1
 10
390.97275354
 20
1940.16704044
 0
VERTEX
 8
VUE_1
 10
390.97275354
 20
2025.58008693
 0
SEQEND
 0
POLYLINE
 8
VUE_1
 66
1
 62
4
 0
VERTEX
 8
VUE_1
 10
390.97275354
 20
2025.52008693
 0
VERTEX
 8
VUE_1
 10
390.97275354
 20
2025.52008693
 0
VERTEX
 8
VUE_1
 10
390.97275354
 20
2025.52008693
 0
VERTEX
 8
VUE_1
 10
390.97275354
 20
2025.52008693
 0
VERTEX
 8
VUE_1
 10
306.69532444
 20
2025.52008693
 0
SEQEND
 0
POLYLINE
 8
VUE_1
 66
1
 62
4
 0
VERTEX
 8
VUE_1
 10
306.69532444
 20
2025.52008693
 0
VERTEX
 8
VUE_1
 10
222.41789534
 20
2025.52008693
 0
SEQEND
 0
POLYLINE
 8
VUE_1
 66
1
 62
4
 0
VERTEX
 8
VUE_1
 10
222.41789534
 20
2025.52008693
 0
VERTEX
 8
VUE_1
 10
222.41789534
 20
2025.52008693
 0
VERTEX
 8
VUE_1
 10
222.41789534
 20
2025.52008693
 0
VERTEX
 8
VUE_1
 10
222.41789534
 20
2025.52008693
 0
SEQEND
 0
POLYLINE
 8
VUE_1
 66
1
 62
4
 0
VERTEX
 8
VUE_1
 10
612.73439687
 20
2025.52008693
 0
VERTEX
 8
VUE_1
 10
390.97275354
 20
2025.52008693
 0
SEQEND
 0
TEXT
 8
VUE_1
 62
2
 10
482.73439687
 20
2050.52008693
 40
50.00000000
 41
0.52000000
 1
168,6
 7
STANDARD
 0
POLYLINE
 8
VUE_1
 66
1
 62
4
 0
VERTEX
 8
VUE_1
 10
1443.76799615
 20
3076.13862178
 0
VERTEX
 8
VUE_1
 10
1443.76799615
 20
3386.19368462
 0
SEQEND
 0
POLYLINE
 8
VUE_1
 66
1
 62
4
 0
VERTEX
 8
VUE_1
 10
-241.58493035
 20
3091.57089473
 0
VERTEX
 8
VUE_1
 10
-241.58493035
 20
3386.19368462
 0
SEQEND
 0
POLYLINE
 8
VUE_1
 66
1
 62
4
 0
VERTEX
 8
VUE_1
 10
-241.58493035
 20
3386.13368462
 0
VERTEX
 8
VUE_1
 10
-241.58493035
 20
3386.13368462
 0
VERTEX
 8
VUE_1
 10
-241.58493035
 20
3386.13368462
 0
VERTEX
 8
VUE_1
 10
-241.58493035
 20
3386.13368462
 0
VERTEX
 8
VUE_1
 10
601.09153290
 20
3386.13368462
 0
SEQEND
 0
POLYLINE
 8
VUE_1
 66
1
 62
4
 0
VERTEX
 8
VUE_1
 10
601.09153290
 20
3386.13368462
 0
VERTEX
 8
VUE_1
 10
1443.76799615
 20
3386.13368462
 0
SEQEND
 0
POLYLINE
 8
VUE_1
 66
1
 62
4
 0
VERTEX
 8
VUE_1
 10
1443.76799615
 20
3386.13368462
 0
VERTEX
 8
VUE_1
 10
1443.76799615
 20
3386.13368462
 0
VERTEX
 8
VUE_1
 10
1443.76799615
 20
3386.13368462
 0
VERTEX
 8
VUE_1
 10
1443.76799615
 20
3386.13368462
 0
SEQEND
 0
POLYLINE
 8
VUE_1
 66
1
 62
4
 0
VERTEX
 8
VUE_1
 10
1443.76799615
 20
3386.13368462
 0
VERTEX
 8
VUE_1
 10
1443.76799615
 20
3386.13368462
 0
SEQEND
 0
TEXT
 8
VUE_1
 62
2
 10
598.63567148
 20
3401.13368462
 40
50.00000000
 41
0.54166667
 1
1685,4
 7
STANDARD
 0
POLYLINE
 8
VUE_1
 66
1
 62
4
 0
VERTEX
 8
VUE_1
 10
229.98483666
 20
1086.56644983
 0
VERTEX
 8
VUE_1
 10
229.98483666
 20
992.91870031
 0
SEQEND
 0
POLYLINE
 8
VUE_1
 66
1
 62
4
 0
VERTEX
 8
VUE_1
 10
212.24641596
 20
3087.29529675
 0
VERTEX
 8
VUE_1
 10
212.24641596
 20
992.91870031
 0
SEQEND
 0
POLYLINE
 8
VUE_1
 66
1
 62
4
 0
VERTEX
 8
VUE_1
 10
212.24641596
 20
992.97870031
 0
VERTEX
 8
VUE_1
 10
212.24641596
 20
992.97870031
 0
VERTEX
 8
VUE_1
 10
212.24641596
 20
992.97870031
 0
VERTEX
 8
VUE_1
 10
212.24641596
 20
992.97870031
 0
VERTEX
 8
VUE_1
 10
221.11562631
 20
992.97870031
 0
SEQEND
 0
POLYLINE
 8
VUE_1
 66
1
 62
4
 0
VERTEX
 8
VUE_1
 10
221.11562631
 20
992.97870031
 0
VERTEX
 8
VUE_1
 10
229.98483666
 20
992.97870031
 0
SEQEND
 0
POLYLINE
 8
VUE_1
 66
1
 62
4
 0
VERTEX
 8
VUE_1
 10
229.98483666
 20
992.97870031
 0
VERTEX
 8
VUE_1
 10
229.98483666
 20
992.97870031
 0
VERTEX
 8
VUE_1
 10
229.98483666
 20
992.97870031
 0
VERTEX
 8
VUE_1
 10
229.98483666
 20
992.97870031
 0
SEQEND
 0
POLYLINE
 8
VUE_1
 66
1
 62
4
 0
VERTEX
 8
VUE_1
 10
-17.57832199
 20
992.97870031
 0
VERTEX
 8
VUE_1
 10
212.24641596
 20
992.97870031
 0
SEQEND
 0
TEXT
 8
VUE_1
 62
2
 10
-17.57832199
 20
1007.97870031
 40
50.00000000
 41
0.48750000
 1
17,7
 7
STANDARD
 0
POLYLINE
 8
VUE_1
 66
1
 62
4
 0
VERTEX
 8
VUE_1
 10
229.98483666
 20
1086.56644983
 0
VERTEX
 8
VUE_1
 10
229.98483666
 20
996.33716253
 0
SEQEND
 0
POLYLINE
 8
VUE_1
 66
1
 62
4
 0
VERTEX
 8
VUE_1
 10
342.15606539
 20
1086.56645088
 0
VERTEX
 8
VUE_1
 10
342.15606539
 20
996.33716253
 0
SEQEND
 0
POLYLINE
 8
VUE_1
 66
1
 62
4
 0
VERTEX
 8
VUE_1
 10
342.15606539
 20
996.39716253
 0
VERTEX
 8
VUE_1
 10
342.15606539
 20
996.39716253
 0
VERTEX
 8
VUE_1
 10
342.15606539
 20
996.39716253
 0
VERTEX
 8
VUE_1
 10
342.15606539
 20
996.39716253
 0
VERTEX
 8
VUE_1
 10
286.07045103
 20
996.39716253
 0
SEQEND
 0
POLYLINE
 8
VUE_1
 66
1
 62
4
 0
VERTEX
 8
VUE_1
 10
286.07045103
 20
996.39716253
 0
VERTEX
 8
VUE_1
 10
229.98483666
 20
996.39716253
 0
SEQEND
 0
POLYLINE
 8
VUE_1
 66
1
 62
4
 0
VERTEX
 8
VUE_1
 10
229.98483666
 20
996.39716253
 0
VERTEX
 8
VUE_1
 10
229.98483666
 20
996.39716253
 0
VERTEX
 8
VUE_1
 10
229.98483666
 20
996.39716253
 0
VERTEX
 8
VUE_1
 10
229.98483666
 20
996.39716253
 0
SEQEND
 0
POLYLINE
 8
VUE_1
 66
1
 62
4
 0
VERTEX
 8
VUE_1
 10
229.98483666
 20
996.39716253
 0
VERTEX
 8
VUE_1
 10
229.98483666
 20
996.39716253
 0
SEQEND
 0
TEXT
 8
VUE_1
 62
2
 10
232.95302678
 20
1011.39716253
 40
50.00000000
 41
0.46000000
 1
112,2
 7
STANDARD
 0
POLYLINE
 8
VUE_1
 66
1
 62
4
 0
VERTEX
 8
VUE_1
 10
320.53997748
 20
1135.49353378
 0
VERTEX
 8
VUE_1
 10
504.90468236
 20
1135.49353378
 0
SEQEND
 0
POLYLINE
 8
VUE_1
 66
1
 62
4
 0
VERTEX
 8
VUE_1
 10
342.27606539
 20
1086.62645088
 0
VERTEX
 8
VUE_1
 10
504.90468236
 20
1086.62645088
 0
SEQEND
 0
POLYLINE
 8
VUE_1
 66
1
 62
4
 0
VERTEX
 8
VUE_1
 10
504.84468236
 20
1086.62645088
 0
VERTEX
 8
VUE_1
 10
504.84468236
 20
1086.62645088
 0
VERTEX
 8
VUE_1
 10
504.84468236
 20
1086.62645088
 0
VERTEX
 8
VUE_1
 10
504.84468236
 20
1086.62645088
 0
VERTEX
 8
VUE_1
 10
504.84468236
 20
1111.05999233
 0
SEQEND
 0
POLYLINE
 8
VUE_1
 66
1
 62
4
 0
VERTEX
 8
VUE_1
 10
504.84468236
 20
1111.05999233
 0
VERTEX
 8
VUE_1
 10
504.84468236
 20
1135.49353378
 0
SEQEND
 0
POLYLINE
 8
VUE_1
 66
1
 62
4
 0
VERTEX
 8
VUE_1
 10
504.84468236
 20
1135.49353378
 0
VERTEX
 8
VUE_1
 10
504.84468236
 20
1135.49353378
 0
VERTEX
 8
VUE_1
 10
504.84468236
 20
1135.49353378
 0
VERTEX
 8
VUE_1
 10
504.84468236
 20
1135.49353378
 0
SEQEND
 0
POLYLINE
 8
VUE_1
 66
1
 62
4
 0
VERTEX
 8
VUE_1
 10
504.84468236
 20
953.44139027
 0
VERTEX
 8
VUE_1
 10
504.84468236
 20
1086.62645088
 0
SEQEND
 0
TEXT
 8
VUE_1
 62
2
 10
489.84468236
 20
953.44139027
 40
50.00000000
 41
0.56250000
 1
48,9
 50
90.00000000
 7
STANDARD
 0
POLYLINE
 8
VUE_1
 66
1
 62
4
 0
VERTEX
 8
VUE_1
 10
399.81224415
 20
1940.10704044
 0
VERTEX
 8
VUE_1
 10
504.90468236
 20
1940.10704044
 0
SEQEND
 0
POLYLINE
 8
VUE_1
 66
1
 62
4
 0
VERTEX
 8
VUE_1
 10
320.53997748
 20
1135.49353378
 0
VERTEX
 8
VUE_1
 10
504.90468236
 20
1135.49353378
 0
SEQEND
 0
POLYLINE
 8
VUE_1
 66
1
 62
4
 0
VERTEX
 8
VUE_1
 10
504.84468236
 20
1135.49353378
 0
VERTEX
 8
VUE_1
 10
504.84468236
 20
1135.49353378
 0
VERTEX
 8
VUE_1
 10
504.84468236
 20
1135.49353378
 0
VERTEX
 8
VUE_1
 10
504.84468236
 20
1135.49353378
 0
VERTEX
 8
VUE_1
 10
504.84468236
 20
1537.80028711
 0
SEQEND
 0
POLYLINE
 8
VUE_1
 66
1
 62
4
 0
VERTEX
 8
VUE_1
 10
504.84468236
 20
1537.80028711
 0
VERTEX
 8
VUE_1
 10
504.84468236
 20
1940.10704044
 0
SEQEND
 0
POLYLINE
 8
VUE_1
 66
1
 62
4
 0
VERTEX
 8
VUE_1
 10
504.84468236
 20
1940.10704044
 0
VERTEX
 8
VUE_1
 10
504.84468236
 20
1940.10704044
 0
VERTEX
 8
VUE_1
 10
504.84468236
 20
1940.10704044
 0
VERTEX
 8
VUE_1
 10
504.84468236
 20
1940.10704044
 0
SEQEND
 0
POLYLINE
 8
VUE_1
 66
1
 62
4
 0
VERTEX
 8
VUE_1
 10
504.84468236
 20
1940.10704044
 0
VERTEX
 8
VUE_1
 10
504.84468236
 20
1940.10704044
 0
SEQEND
 0
TEXT
 8
VUE_1
 62
2
 10
489.84468236
 20
1411.18171458
 40
50.00000000
 41
0.58000000
 1
804,6
 50
90.00000000
 7
STANDARD
 0
POLYLINE
 8
VUE_1
 66
1
 62
4
 0
VERTEX
 8
VUE_1
 10
342.21606539
 20
1086.62645088
 0
VERTEX
 8
VUE_1
 10
683.89403559
 20
1086.62645088
 0
SEQEND
 0
POLYLINE
 8
VUE_1
 66
1
 62
4
 0
VERTEX
 8
VUE_1
 10
293.69151976
 20
3086.61007769
 0
VERTEX
 8
VUE_1
 10
683.89403559
 20
3086.61007769
 0
SEQEND
 0
POLYLINE
 8
VUE_1
 66
1
 62
4
 0
VERTEX
 8
VUE_1
 10
683.83403559
 20
3086.61007769
 0
VERTEX
 8
VUE_1
 10
683.83403559
 20
3086.61007769
 0
VERTEX
 8
VUE_1
 10
683.83403559
 20
3086.61007769
 0
VERTEX
 8
VUE_1
 10
683.83403559
 20
3086.61007769
 0
VERTEX
 8
VUE_1
 10
683.83403559
 20
2086.61826428
 0
SEQEND
 0
POLYLINE
 8
VUE_1
 66
1
 62
4
 0
VERTEX
 8
VUE_1
 10
683.83403559
 20
2086.61826428
 0
VERTEX
 8
VUE_1
 10
683.83403559
 20
1086.62645088
 0
SEQEND
 0
POLYLINE
 8
VUE_1
 66
1
 62
4
 0
VERTEX
 8
VUE_1
 10
683.83403559
 20
1086.62645088
 0
VERTEX
 8
VUE_1
 10
683.83403559
 20
1086.62645088
 0
VERTEX
 8
VUE_1
 10
683.83403559
 20
1086.62645088
 0
VERTEX
 8
VUE_1
 10
683.83403559
 20
1086.62645088
 0
SEQEND
 0
POLYLINE
 8
VUE_1
 66
1
 62
4
 0
VERTEX
 8
VUE_1
 10
683.83403559
 20
1086.62645088
 0
VERTEX
 8
VUE_1
 10
683.83403559
 20
1086.62645088
 0
SEQEND
 0
TEXT
 8
VUE_1
 62
2
 10
668.83403559
 20
2163.92300996
 40
50.00000000
 41
0.59166667
 1
2000,0
 50
90.00000000
 7
STANDARD
 0
POLYLINE
 8
VUE_1
 66
1
 62
4
 0
VERTEX
 8
VUE_1
 10
1302.20700015
 20
2689.62632178
 0
VERTEX
 8
VUE_1
 10
1076.88768918
 20
2689.62632178
 0
SEQEND
 0
POLYLINE
 8
VUE_1
 66
1
 62
4
 0
VERTEX
 8
VUE_1
 10
1187.77734302
 20
3078.42210226
 0
VERTEX
 8
VUE_1
 10
1076.88768918
 20
3078.42210226
 0
SEQEND
 0
POLYLINE
 8
VUE_1
 66
1
 62
4
 0
VERTEX
 8
VUE_1
 10
1076.94768918
 20
3078.42210226
 0
VERTEX
 8
VUE_1
 10
1076.94768918
 20
3078.42210226
 0
VERTEX
 8
VUE_1
 10
1076.94768918
 20
3078.42210226
 0
VERTEX
 8
VUE_1
 10
1076.94768918
 20
3078.42210226
 0
VERTEX
 8
VUE_1
 10
1076.94768918
 20
2884.02421202
 0
SEQEND
 0
POLYLINE
 8
VUE_1
 66
1
 62
4
 0
VERTEX
 8
VUE_1
 10
1076.94768918
 20
2884.02421202
 0
VERTEX
 8
VUE_1
 10
1076.94768918
 20
2689.62632178
 0
SEQEND
 0
POLYLINE
 8
VUE_1
 66
1
 62
4
 0
VERTEX
 8
VUE_1
 10
1076.94768918
 20
2689.62632178
 0
VERTEX
 8
VUE_1
 10
1076.94768918
 20
2689.62632178
 0
VERTEX
 8
VUE_1
 10
1076.94768918
 20
2689.62632178
 0
VERTEX
 8
VUE_1
 10
1076.94768918
 20
2689.62632178
 0
SEQEND
 0
POLYLINE
 8
VUE_1
 66
1
 62
4
 0
VERTEX
 8
VUE_1
 10
1076.94768918
 20
2689.62632178
 0
VERTEX
 8
VUE_1
 10
1076.94768918
 20
2689.62632178
 0
SEQEND
 0
TEXT
 8
VUE_1
 62
2
 10
1061.94768918
 20
2804.64697569
 40
50.00000000
 41
0.58000000
 1
388,8
 50
90.00000000
 7
STANDARD
 0
POLYLINE
 8
VUE_1
 66
1
 62
4
 0
VERTEX
 8
VUE_1
 10
1228.14743081
 20
2691.54812844
 0
VERTEX
 8
VUE_1
 10
1228.14743081
 20
2538.33305161
 0
SEQEND
 0
POLYLINE
 8
VUE_1
 66
1
 62
4
 0
VERTEX
 8
VUE_1
 10
1187.83734302
 20
3078.36210226
 0
VERTEX
 8
VUE_1
 10
1187.83734302
 20
2538.33305161
 0
SEQEND
 0
POLYLINE
 8
VUE_1
 66
1
 62
4
 0
VERTEX
 8
VUE_1
 10
1187.83734302
 20
2538.39305161
 0
VERTEX
 8
VUE_1
 10
1187.83734302
 20
2538.39305161
 0
VERTEX
 8
VUE_1
 10
1187.83734302
 20
2538.39305161
 0
VERTEX
 8
VUE_1
 10
1187.83734302
 20
2538.39305161
 0
VERTEX
 8
VUE_1
 10
1207.99238691
 20
2538.39305161
 0
SEQEND
 0
POLYLINE
 8
VUE_1
 66
1
 62
4
 0
VERTEX
 8
VUE_1
 10
1207.99238691
 20
2538.39305161
 0
VERTEX
 8
VUE_1
 10
1228.14743081
 20
2538.39305161
 0
SEQEND
 0
POLYLINE
 8
VUE_1
 66
1
 62
4
 0
VERTEX
 8
VUE_1
 10
1228.14743081
 20
2538.39305161
 0
VERTEX
 8
VUE_1
 10
1228.14743081
 20
2538.39305161
 0
VERTEX
 8
VUE_1
 10
1228.14743081
 20
2538.39305161
 0
VERTEX
 8
VUE_1
 10
1228.14743081
 20
2538.39305161
 0
SEQEND
 0
POLYLINE
 8
VUE_1
 66
1
 62
4
 0
VERTEX
 8
VUE_1
 10
1020.69768918
 20
2538.39305161
 0
VERTEX
 8
VUE_1
 10
1187.83734302
 20
2538.39305161
 0
SEQEND
 0
TEXT
 8
VUE_1
 62
2
 10
1020.69768918
 20
2553.39305161
 40
50.00000000
 41
0.56250000
 1
40,3
 7
STANDARD
 0
POLYLINE
 8
VUE_1
 66
1
 62
4
 0
VERTEX
 8
VUE_1
 10
1302.26700015
 20
2689.56632178
 0
VERTEX
 8
VUE_1
 10
1302.26700015
 20
2536.34428101
 0
SEQEND
 0
POLYLINE
 8
VUE_1
 66
1
 62
4
 0
VERTEX
 8
VUE_1
 10
1228.14743081
 20
2691.54812844
 0
VERTEX
 8
VUE_1
 10
1228.14743081
 20
2536.34428101
 0
SEQEND
 0
POLYLINE
 8
VUE_1
 66
1
 62
4
 0
VERTEX
 8
VUE_1
 10
1228.14743081
 20
2536.40428101
 0
VERTEX
 8
VUE_1
 10
1228.14743081
 20
2536.40428101
 0
VERTEX
 8
VUE_1
 10
1228.14743081
 20
2536.40428101
 0
VERTEX
 8
VUE_1
 10
1228.14743081
 20
2536.40428101
 0
VERTEX
 8
VUE_1
 10
1265.20721548
 20
2536.40428101
 0
SEQEND
 0
POLYLINE
 8
VUE_1
 66
1
 62
4
 0
VERTEX
 8
VUE_1
 10
1265.20721548
 20
2536.40428101
 0
VERTEX
 8
VUE_1
 10
1302.26700015
 20
2536.40428101
 0
SEQEND
 0
POLYLINE
 8
VUE_1
 66
1
 62
4
 0
VERTEX
 8
VUE_1
 10
1302.26700015
 20
2536.40428101
 0
VERTEX
 8
VUE_1
 10
1302.26700015
 20
2536.40428101
 0
VERTEX
 8
VUE_1
 10
1302.26700015
 20
2536.40428101
 0
VERTEX
 8
VUE_1
 10
1302.26700015
 20
2536.40428101
 0
SEQEND
 0
POLYLINE
 8
VUE_1
 66
1
 62
4
 0
VERTEX
 8
VUE_1
 10
1445.22683088
 20
2536.40428101
 0
VERTEX
 8
VUE_1
 10
1302.26700015
 20
2536.40428101
 0
SEQEND
 0
TEXT
 8
VUE_1
 62
2
 10
1347.72683088
 20
2551.40428101
 40
50.00000000
 41
0.48750000
 1
74,1
 7
STANDARD
 0
POLYLINE
 8
VUE_1
 66
1
 62
4
 0
VERTEX
 8
VUE_1
 10
212.24641596
 20
3087.41529675
 0
VERTEX
 8
VUE_1
 10
212.24641596
 20
3172.87087030
 0
SEQEND
 0
POLYLINE
 8
VUE_1
 66
1
 62
4
 0
VERTEX
 8
VUE_1
 10
456.46421958
 20
3085.17906733
 0
VERTEX
 8
VUE_1
 10
456.46421958
 20
3172.87087030
 0
SEQEND
 0
POLYLINE
 8
VUE_1
 66
1
 62
4
 0
VERTEX
 8
VUE_1
 10
456.46421958
 20
3172.81087030
 0
VERTEX
 8
VUE_1
 10
456.46421958
 20
3172.81087030
 0
VERTEX
 8
VUE_1
 10
456.46421958
 20
3172.81087030
 0
VERTEX
 8
VUE_1
 10
456.46421958
 20
3172.81087030
 0
VERTEX
 8
VUE_1
 10
334.35531777
 20
3172.81087030
 0
SEQEND
 0
POLYLINE
 8
VUE_1
 66
1
 62
4
 0
VERTEX
 8
VUE_1
 10
334.35531777
 20
3172.81087030
 0
VERTEX
 8
VUE_1
 10
212.24641596
 20
3172.81087030
 0
SEQEND
 0
POLYLINE
 8
VUE_1
 66
1
 62
4
 0
VERTEX
 8
VUE_1
 10
212.24641596
 20
3172.81087030
 0
VERTEX
 8
VUE_1
 10
212.24641596
 20
3172.81087030
 0
VERTEX
 8
VUE_1
 10
212.24641596
 20
3172.81087030
 0
VERTEX
 8
VUE_1
 10
212.24641596
 20
3172.81087030
 0
SEQEND
 0
POLYLINE
 8
VUE_1
 66
1
 62
4
 0
VERTEX
 8
VUE_1
 10
653.58088836
 20
3172.81087030
 0
VERTEX
 8
VUE_1
 10
456.46421958
 20
3172.81087030
 0
SEQEND
 0
TEXT
 8
VUE_1
 62
2
 10
508.58088836
 20
3187.81087030
 40
50.00000000
 41
0.58000000
 1
244,2
 7
STANDARD
 0
POLYLINE
 8
VUE_1
 66
1
 62
4
 0
VERTEX
 8
VUE_1
 10
1187.83734302
 20
3078.48210226
 0
VERTEX
 8
VUE_1
 10
1187.83734302
 20
3262.36554691
 0
SEQEND
 0
POLYLINE
 8
VUE_1
 66
1
 62
4
 0
VERTEX
 8
VUE_1
 10
1312.17603348
 20
3064.24778178
 0
VERTEX
 8
VUE_1
 10
1312.17603348
 20
3262.36554691
 0
SEQEND
 0
POLYLINE
 8
VUE_1
 66
1
 62
4
 0
VERTEX
 8
VUE_1
 10
1312.17603348
 20
3262.30554691
 0
VERTEX
 8
VUE_1
 10
1312.17603348
 20
3262.30554691
 0
VERTEX
 8
VUE_1
 10
1312.17603348
 20
3262.30554691
 0
VERTEX
 8
VUE_1
 10
1312.17603348
 20
3262.30554691
 0
VERTEX
 8
VUE_1
 10
1250.00668825
 20
3262.30554691
 0
SEQEND
 0
POLYLINE
 8
VUE_1
 66
1
 62
4
 0
VERTEX
 8
VUE_1
 10
1250.00668825
 20
3262.30554691
 0
VERTEX
 8
VUE_1
 10
1187.83734302
 20
3262.30554691
 0
SEQEND
 0
POLYLINE
 8
VUE_1
 66
1
 62
4
 0
VERTEX
 8
VUE_1
 10
1187.83734302
 20
3262.30554691
 0
VERTEX
 8
VUE_1
 10
1187.83734302
 20
3262.30554691
 0
VERTEX
 8
VUE_1
 10
1187.83734302
 20
3262.30554691
 0
VERTEX
 8
VUE_1
 10
1187.83734302
 20
3262.30554691
 0
SEQEND
 0
POLYLINE
 8
VUE_1
 66
1
 62
4
 0
VERTEX
 8
VUE_1
 10
1471.42068384
 20
3262.30554691
 0
VERTEX
 8
VUE_1
 10
1312.17603348
 20
3262.30554691
 0
SEQEND
 0
TEXT
 8
VUE_1
 62
2
 10
1341.42068384
 20
3277.30554691
 40
50.00000000
 41
0.52000000
 1
124,3
 7
STANDARD
 0
POLYLINE
 8
VUE_1
 66
1
 62
4
 0
VERTEX
 8
VUE_1
 10
1187.83734302
 20
3078.48210226
 0
VERTEX
 8
VUE_1
 10
1187.83734302
 20
3262.36554691
 0
SEQEND
 0
POLYLINE
 8
VUE_1
 66
1
 62
4
 0
VERTEX
 8
VUE_1
 10
212.24641596
 20
3087.41529675
 0
VERTEX
 8
VUE_1
 10
212.24641596
 20
3262.36554691
 0
SEQEND
 0
POLYLINE
 8
VUE_1
 66
1
 62
4
 0
VERTEX
 8
VUE_1
 10
212.24641596
 20
3262.30554691
 0
VERTEX
 8
VUE_1
 10
212.24641596
 20
3262.30554691
 0
VERTEX
 8
VUE_1
 10
212.24641596
 20
3262.30554691
 0
VERTEX
 8
VUE_1
 10
212.24641596
 20
3262.30554691
 0
VERTEX
 8
VUE_1
 10
700.04187949
 20
3262.30554691
 0
SEQEND
 0
POLYLINE
 8
VUE_1
 66
1
 62
4
 0
VERTEX
 8
VUE_1
 10
700.04187949
 20
3262.30554691
 0
VERTEX
 8
VUE_1
 10
1187.83734302
 20
3262.30554691
 0
SEQEND
 0
POLYLINE
 8
VUE_1
 66
1
 62
4
 0
VERTEX
 8
VUE_1
 10
1187.83734302
 20
3262.30554691
 0
VERTEX
 8
VUE_1
 10
1187.83734302
 20
3262.30554691
 0
VERTEX
 8
VUE_1
 10
1187.83734302
 20
3262.30554691
 0
VERTEX
 8
VUE_1
 10
1187.83734302
 20
3262.30554691
 0
SEQEND
 0
POLYLINE
 8
VUE_1
 66
1
 62
4
 0
VERTEX
 8
VUE_1
 10
1187.83734302
 20
3262.30554691
 0
VERTEX
 8
VUE_1
 10
1187.83734302
 20
3262.30554691
 0
SEQEND
 0
TEXT
 8
VUE_1
 62
2
 10
568.24400611
 20
3277.30554691
 40
50.00000000
 41
0.58000000
 1
975,6
 7
STANDARD
 0
POINT
 8
VUE_1
 10
453.65738548
 20
3036.04612711
 0
POINT
 8
VUE_1
 10
1443.76799615
 20
3076.07862178
 0
POINT
 8
VUE_1
 10
1118.35534148
 20
3078.06042844
 0
POLYLINE
 8
VUE_1
 66
1
 0
VERTEX
 8
VUE_1
 10
1187.83734302
 20
3078.42210226
 0
VERTEX
 8
VUE_1
 10
1228.14743081
 20
2691.60812844
 0
VERTEX
 8
VUE_1
 10
1302.26700015
 20
2689.62632178
 0
VERTEX
 8
VUE_1
 10
1312.52239900
 20
3077.28039848
 0
SEQEND
 0
POLYLINE
 8
VUE_1
 66
1
 0
VERTEX
 8
VUE_1
 10
1188.90765881
 20
3068.15139511
 0
VERTEX
 8
VUE_1
 10
580.88937348
 20
3052.29694178
 0
VERTEX
 8
VUE_1
 10
486.55537615
 20
3050.71149644
 0
VERTEX
 8
VUE_1
 10
469.51183881
 20
3044.76607644
 0
VERTEX
 8
VUE_1
 10
453.65738548
 20
3036.04612711
 0
SEQEND
 0
POLYLINE
 8
VUE_1
 66
1
 0
VERTEX
 8
VUE_1
 10
212.66969481
 20
3039.61337911
 0
VERTEX
 8
VUE_1
 10
453.65738548
 20
3036.04612711
 0
SEQEND
 0
POINT
 8
VUE_1
 10
342.15606519
 20
1086.62644727
 0
POLYLINE
 8
VUE_1
 66
1
 0
VERTEX
 8
VUE_1
 10
320.47997748
 20
1135.49353378
 0
VERTEX
 8
VUE_1
 10
344.98159488
 20
1136.02624959
 0
SEQEND
 0
POLYLINE
 8
VUE_1
 66
1
 0
VERTEX
 8
VUE_1
 10
287.70539075
 20
2689.23441999
 0
VERTEX
 8
VUE_1
 10
297.53345227
 20
2689.34242067
 0
SEQEND
 0
POLYLINE
 8
VUE_1
 66
1
 0
VERTEX
 8
VUE_1
 10
297.53345227
 20
2689.34242067
 0
VERTEX
 8
VUE_1
 10
295.17704873
 20
2339.28204523
 0
SEQEND
 0
POLYLINE
 8
VUE_1
 66
1
 0
VERTEX
 8
VUE_1
 10
287.70539075
 20
2689.23441999
 0
VERTEX
 8
VUE_1
 10
285.34938426
 20
2339.23302945
 0
SEQEND
 0
POLYLINE
 8
VUE_1
 66
1
 0
VERTEX
 8
VUE_1
 10
285.34938426
 20
2339.23302945
 0
VERTEX
 8
VUE_1
 10
295.17704873
 20
2339.28204523
 0
SEQEND
 0
POINT
 8
VUE_1
 10
-241.58493035
 20
3091.51089473
 0
POLYLINE
 8
VUE_1
 66
1
 0
VERTEX
 8
VUE_1
 10
211.00353792
 20
3031.90168183
 0
VERTEX
 8
VUE_1
 10
205.48399402
 20
3031.89463162
 0
VERTEX
 8
VUE_1
 10
199.96414170
 20
3031.87496522
 0
VERTEX
 8
VUE_1
 10
194.44403540
 20
3031.84490904
 0
VERTEX
 8
VUE_1
 10
188.92372954
 20
3031.80668944
 0
VERTEX
 8
VUE_1
 10
183.40327856
 20
3031.76253282
 0
VERTEX
 8
VUE_1
 10
177.88273686
 20
3031.71466556
 0
VERTEX
 8
VUE_1
 10
172.36215888
 20
3031.66531404
 0
VERTEX
 8
VUE_1
 10
166.84159904
 20
3031.61670465
 0
VERTEX
 8
VUE_1
 10
161.32111177
 20
3031.57106377
 0
VERTEX
 8
VUE_1
 10
155.80075149
 20
3031.53061779
 0
VERTEX
 8
VUE_1
 10
150.28057262
 20
3031.49759309
 0
VERTEX
 8
VUE_1
 10
144.76062960
 20
3031.47421606
 0
VERTEX
 8
VUE_1
 10
139.24097684
 20
3031.46271307
 0
VERTEX
 8
VUE_1
 10
133.72166877
 20
3031.46531052
 0
VERTEX
 8
VUE_1
 10
128.20275982
 20
3031.48423479
 0
VERTEX
 8
VUE_1
 10
122.68430440
 20
3031.52171225
 0
VERTEX
 8
VUE_1
 10
117.16635695
 20
3031.57996931
 0
VERTEX
 8
VUE_1
 10
111.64897189
 20
3031.66123233
 0
VERTEX
 8
VUE_1
 10
106.13220365
 20
3031.76772772
 0
VERTEX
 8
VUE_1
 10
100.61610664
 20
3031.90168183
 0
SEQEND
 0
POLYLINE
 8
VUE_1
 66
1
 0
VERTEX
 8
VUE_1
 10
100.61610664
 20
3031.90168183
 0
VERTEX
 8
VUE_1
 10
96.08504303
 20
3032.03351836
 0
VERTEX
 8
VUE_1
 10
91.55447708
 20
3032.18469470
 0
VERTEX
 8
VUE_1
 10
87.02441671
 20
3032.35451619
 0
VERTEX
 8
VUE_1
 10
82.49486983
 20
3032.54228815
 0
VERTEX
 8
VUE_1
 10
77.96584436
 20
3032.74731593
 0
VERTEX
 8
VUE_1
 10
73.43734822
 20
3032.96890484
 0
VERTEX
 8
VUE_1
 10
68.90938931
 20
3033.20636021
 0
VERTEX
 8
VUE_1
 10
64.38197555
 20
3033.45898739
 0
VERTEX
 8
VUE_1
 10
59.85511485
 20
3033.72609168
 0
VERTEX
 8
VUE_1
 10
55.32881514
 20
3034.00697844
 0
VERTEX
 8
VUE_1
 10
50.80308432
 20
3034.30095297
 0
VERTEX
 8
VUE_1
 10
46.27793030
 20
3034.60732062
 0
VERTEX
 8
VUE_1
 10
41.75336101
 20
3034.92538671
 0
VERTEX
 8
VUE_1
 10
37.22938435
 20
3035.25445657
 0
VERTEX
 8
VUE_1
 10
32.70600825
 20
3035.59383554
 0
VERTEX
 8
VUE_1
 10
28.18324061
 20
3035.94282893
 0
VERTEX
 8
VUE_1
 10
23.66108935
 20
3036.30074208
 0
VERTEX
 8
VUE_1
 10
19.13956238
 20
3036.66688033
 0
VERTEX
 8
VUE_1
 10
14.61866762
 20
3037.04054899
 0
VERTEX
 8
VUE_1
 10
10.09841298
 20
3037.42105340
 0
SEQEND
 0
POLYLINE
 8
VUE_1
 66
1
 0
VERTEX
 8
VUE_1
 10
10.09841298
 20
3037.42105340
 0
VERTEX
 8
VUE_1
 10
5.89416277
 20
3037.78070675
 0
VERTEX
 8
VUE_1
 10
1.69053647
 20
3038.14614644
 0
VERTEX
 8
VUE_1
 10
-2.51240274
 20
3038.51784487
 0
VERTEX
 8
VUE_1
 10
-6.71459168
 20
3038.89627441
 0
VERTEX
 8
VUE_1
 10
-10.91596721
 20
3039.28190747
 0
VERTEX
 8
VUE_1
 10
-15.11646613
 20
3039.67521642
 0
VERTEX
 8
VUE_1
 10
-19.31602530
 20
3040.07667365
 0
VERTEX
 8
VUE_1
 10
-23.51458154
 20
3040.48675155
 0
VERTEX
 8
VUE_1
 10
-27.71207167
 20
3040.90592252
 0
VERTEX
 8
VUE_1
 10
-31.90843255
 20
3041.33465892
 0
VERTEX
 8
VUE_1
 10
-36.10360099
 20
3041.77343317
 0
VERTEX
 8
VUE_1
 10
-40.29751383
 20
3042.22271763
 0
VERTEX
 8
VUE_1
 10
-44.49010790
 20
3042.68298471
 0
VERTEX
 8
VUE_1
 10
-48.68132004
 20
3043.15470678
 0
VERTEX
 8
VUE_1
 10
-52.87108707
 20
3043.63835624
 0
VERTEX
 8
VUE_1
 10
-57.05934583
 20
3044.13440548
 0
VERTEX
 8
VUE_1
 10
-61.24603315
 20
3044.64332687
 0
VERTEX
 8
VUE_1
 10
-65.43108586
 20
3045.16559282
 0
VERTEX
 8
VUE_1
 10
-69.61444080
 20
3045.70167570
 0
VERTEX
 8
VUE_1
 10
-73.79603479
 20
3046.25204790
 0
SEQEND
 0
POLYLINE
 8
VUE_1
 66
1
 0
VERTEX
 8
VUE_1
 10
-73.79603479
 20
3046.25204790
 0
VERTEX
 8
VUE_1
 10
-77.74394608
 20
3046.78551637
 0
VERTEX
 8
VUE_1
 10
-81.69002405
 20
3047.33304045
 0
VERTEX
 8
VUE_1
 10
-85.63406273
 20
3047.89550648
 0
VERTEX
 8
VUE_1
 10
-89.57585613
 20
3048.47380081
 0
VERTEX
 8
VUE_1
 10
-93.51519826
 20
3049.06880977
 0
VERTEX
 8
VUE_1
 10
-97.45188316
 20
3049.68141972
 0
VERTEX
 8
VUE_1
 10
-101.38570483
 20
3050.31251699
 0
VERTEX
 8
VUE_1
 10
-105.31645728
 20
3050.96298793
 0
VERTEX
 8
VUE_1
 10
-109.24393455
 20
3051.63371888
 0
VERTEX
 8
VUE_1
 10
-113.16793065
 20
3052.32559618
 0
VERTEX
 8
VUE_1
 10
-117.08823959
 20
3053.03950618
 0
VERTEX
 8
VUE_1
 10
-121.00465540
 20
3053.77633521
 0
VERTEX
 8
VUE_1
 10
-124.91697208
 20
3054.53696962
 0
VERTEX
 8
VUE_1
 10
-128.82498366
 20
3055.32229576
 0
VERTEX
 8
VUE_1
 10
-132.72848416
 20
3056.13319996
 0
VERTEX
 8
VUE_1
 10
-136.62726759
 20
3056.97056858
 0
VERTEX
 8
VUE_1
 10
-140.52112797
 20
3057.83528794
 0
VERTEX
 8
VUE_1
 10
-144.40985933
 20
3058.72824440
 0
VERTEX
 8
VUE_1
 10
-148.29325566
 20
3059.65032429
 0
VERTEX
 8
VUE_1
 10
-152.17111101
 20
3060.60241397
 0
SEQEND
 0
POLYLINE
 8
VUE_1
 66
1
 0
VERTEX
 8
VUE_1
 10
-152.17111101
 20
3060.60241397
 0
VERTEX
 8
VUE_1
 10
-155.04713430
 20
3061.32887848
 0
VERTEX
 8
VUE_1
 10
-157.92035174
 20
3062.06981189
 0
VERTEX
 8
VUE_1
 10
-160.79112657
 20
3062.82264578
 0
VERTEX
 8
VUE_1
 10
-163.65982206
 20
3063.58481171
 0
VERTEX
 8
VUE_1
 10
-166.52680147
 20
3064.35374124
 0
VERTEX
 8
VUE_1
 10
-169.39242803
 20
3065.12686593
 0
VERTEX
 8
VUE_1
 10
-172.25706502
 20
3065.90161735
 0
VERTEX
 8
VUE_1
 10
-175.12107568
 20
3066.67542707
 0
VERTEX
 8
VUE_1
 10
-177.98482328
 20
3067.44572664
 0
VERTEX
 8
VUE_1
 10
-180.84867106
 20
3068.20994764
 0
VERTEX
 8
VUE_1
 10
-183.71298228
 20
3068.96552163
 0
VERTEX
 8
VUE_1
 10
-186.57812020
 20
3069.70988016
 0
VERTEX
 8
VUE_1
 10
-189.44444807
 20
3070.44045482
 0
VERTEX
 8
VUE_1
 10
-192.31232915
 20
3071.15467715
 0
VERTEX
 8
VUE_1
 10
-195.18212669
 20
3071.84997873
 0
VERTEX
 8
VUE_1
 10
-198.05420395
 20
3072.52379111
 0
VERTEX
 8
VUE_1
 10
-200.92892419
 20
3073.17354587
 0
VERTEX
 8
VUE_1
 10
-203.80665065
 20
3073.79667457
 0
VERTEX
 8
VUE_1
 10
-206.68774659
 20
3074.39060877
 0
VERTEX
 8
VUE_1
 10
-209.57257528
 20
3074.95278004
 0
SEQEND
 0
POLYLINE
 8
VUE_1
 66
1
 0
VERTEX
 8
VUE_1
 10
-209.57257528
 20
3074.95278004
 0
VERTEX
 8
VUE_1
 10
-210.93542904
 20
3075.20704057
 0
VERTEX
 8
VUE_1
 10
-212.29849039
 20
3075.45756223
 0
VERTEX
 8
VUE_1
 10
-213.66105447
 20
3075.70825396
 0
VERTEX
 8
VUE_1
 10
-215.02241643
 20
3075.96302465
 0
VERTEX
 8
VUE_1
 10
-216.38187141
 20
3076.22578325
 0
VERTEX
 8
VUE_1
 10
-217.73871457
 20
3076.50043866
 0
VERTEX
 8
VUE_1
 10
-219.09224104
 20
3076.79089980
 0
VERTEX
 8
VUE_1
 10
-220.44174598
 20
3077.10107559
 0
VERTEX
 8
VUE_1
 10
-221.78652453
 20
3077.43487496
 0
VERTEX
 8
VUE_1
 10
-223.12587183
 20
3077.79620681
 0
VERTEX
 8
VUE_1
 10
-224.45908304
 20
3078.18898008
 0
VERTEX
 8
VUE_1
 10
-225.78545330
 20
3078.61710367
 0
VERTEX
 8
VUE_1
 10
-227.10427776
 20
3079.08448651
 0
VERTEX
 8
VUE_1
 10
-228.41485156
 20
3079.59503752
 0
VERTEX
 8
VUE_1
 10
-229.71646985
 20
3080.15266561
 0
VERTEX
 8
VUE_1
 10
-231.00842778
 20
3080.76127971
 0
VERTEX
 8
VUE_1
 10
-232.29002049
 20
3081.42478873
 0
VERTEX
 8
VUE_1
 10
-233.56054313
 20
3082.14710160
 0
VERTEX
 8
VUE_1
 10
-234.81929085
 20
3082.93212723
 0
VERTEX
 8
VUE_1
 10
-236.06555878
 20
3083.78377454
 0
SEQEND
 0
POLYLINE
 8
VUE_1
 66
1
 0
VERTEX
 8
VUE_1
 10
-236.06555878
 20
3083.78377454
 0
VERTEX
 8
VUE_1
 10
-236.48604588
 20
3084.08922206
 0
VERTEX
 8
VUE_1
 10
-236.90305306
 20
3084.40287634
 0
VERTEX
 8
VUE_1
 10
-237.31462492
 20
3084.72478903
 0
VERTEX
 8
VUE_1
 10
-237.71880602
 20
3085.05501178
 0
VERTEX
 8
VUE_1
 10
-238.11364093
 20
3085.39359625
 0
VERTEX
 8
VUE_1
 10
-238.49717422
 20
3085.74059410
 0
VERTEX
 8
VUE_1
 10
-238.86745047
 20
3086.09605697
 0
VERTEX
 8
VUE_1
 10
-239.22251424
 20
3086.46003653
 0
VERTEX
 8
VUE_1
 10
-239.56041011
 20
3086.83258442
 0
VERTEX
 8
VUE_1
 10
-239.87918265
 20
3087.21375231
 0
VERTEX
 8
VUE_1
 10
-240.17687642
 20
3087.60359184
 0
VERTEX
 8
VUE_1
 10
-240.45153600
 20
3088.00215467
 0
VERTEX
 8
VUE_1
 10
-240.70120597
 20
3088.40949246
 0
VERTEX
 8
VUE_1
 10
-240.92393088
 20
3088.82565686
 0
VERTEX
 8
VUE_1
 10
-241.11775532
 20
3089.25069952
 0
VERTEX
 8
VUE_1
 10
-241.28072385
 20
3089.68467211
 0
VERTEX
 8
VUE_1
 10
-241.41088105
 20
3090.12762627
 0
VERTEX
 8
VUE_1
 10
-241.50627149
 20
3090.57961365
 0
VERTEX
 8
VUE_1
 10
-241.56493973
 20
3091.04068592
 0
VERTEX
 8
VUE_1
 10
-241.58493035
 20
3091.51089473
 0
SEQEND
 0
POLYLINE
 8
VUE_1
 66
1
 0
VERTEX
 8
VUE_1
 10
-40.16466406
 20
3127.57078895
 0
VERTEX
 8
VUE_1
 10
-41.19927737
 20
3127.46621527
 0
VERTEX
 8
VUE_1
 10
-42.22956892
 20
3127.33464653
 0
VERTEX
 8
VUE_1
 10
-43.25560203
 20
3127.17718764
 0
VERTEX
 8
VUE_1
 10
-44.27744005
 20
3126.99494354
 0
VERTEX
 8
VUE_1
 10
-45.29514630
 20
3126.78901915
 0
VERTEX
 8
VUE_1
 10
-46.30878411
 20
3126.56051940
 0
VERTEX
 8
VUE_1
 10
-47.31841681
 20
3126.31054920
 0
VERTEX
 8
VUE_1
 10
-48.32410775
 20
3126.04021349
 0
VERTEX
 8
VUE_1
 10
-49.32592024
 20
3125.75061719
 0
VERTEX
 8
VUE_1
 10
-50.32391762
 20
3125.44286523
 0
VERTEX
 8
VUE_1
 10
-51.31816322
 20
3125.11806252
 0
VERTEX
 8
VUE_1
 10
-52.30872037
 20
3124.77731401
 0
VERTEX
 8
VUE_1
 10
-53.29565241
 20
3124.42172461
 0
VERTEX
 8
VUE_1
 10
-54.27902267
 20
3124.05239924
 0
VERTEX
 8
VUE_1
 10
-55.25889447
 20
3123.67044284
 0
VERTEX
 8
VUE_1
 10
-56.23533115
 20
3123.27696032
 0
VERTEX
 8
VUE_1
 10
-57.20839605
 20
3122.87305662
 0
VERTEX
 8
VUE_1
 10
-58.17815248
 20
3122.45983666
 0
VERTEX
 8
VUE_1
 10
-59.14466380
 20
3122.03840537
 0
VERTEX
 8
VUE_1
 10
-60.10799331
 20
3121.60986766
 0
SEQEND
 0
POLYLINE
 8
VUE_1
 66
1
 0
VERTEX
 8
VUE_1
 10
-60.10799331
 20
3121.60986766
 0
VERTEX
 8
VUE_1
 10
-61.09468087
 20
3121.16289027
 0
VERTEX
 8
VUE_1
 10
-62.07748542
 20
3120.70890112
 0
VERTEX
 8
VUE_1
 10
-63.05581777
 20
3120.24722744
 0
VERTEX
 8
VUE_1
 10
-64.02908875
 20
3119.77719645
 0
VERTEX
 8
VUE_1
 10
-64.99670918
 20
3119.29813539
 0
VERTEX
 8
VUE_1
 10
-65.95808987
 20
3118.80937147
 0
VERTEX
 8
VUE_1
 10
-66.91264166
 20
3118.31023194
 0
VERTEX
 8
VUE_1
 10
-67.85977535
 20
3117.80004401
 0
VERTEX
 8
VUE_1
 10
-68.79890176
 20
3117.27813490
 0
VERTEX
 8
VUE_1
 10
-69.72943173
 20
3116.74383186
 0
VERTEX
 8
VUE_1
 10
-70.65077606
 20
3116.19646210
 0
VERTEX
 8
VUE_1
 10
-71.56234559
 20
3115.63535285
 0
VERTEX
 8
VUE_1
 10
-72.46355111
 20
3115.05983135
 0
VERTEX
 8
VUE_1
 10
-73.35380347
 20
3114.46922480
 0
VERTEX
 8
VUE_1
 10
-74.23251347
 20
3113.86286045
 0
VERTEX
 8
VUE_1
 10
-75.09909195
 20
3113.24006552
 0
VERTEX
 8
VUE_1
 10
-75.95294970
 20
3112.60016724
 0
VERTEX
 8
VUE_1
 10
-76.79349757
 20
3111.94249283
 0
VERTEX
 8
VUE_1
 10
-77.62014637
 20
3111.26636951
 0
VERTEX
 8
VUE_1
 10
-78.43230691
 20
3110.57112453
 0
SEQEND
 0
POLYLINE
 8
VUE_1
 66
1
 0
VERTEX
 8
VUE_1
 10
-78.43230691
 20
3110.57112453
 0
VERTEX
 8
VUE_1
 10
-78.96244606
 20
3110.09936464
 0
VERTEX
 8
VUE_1
 10
-79.48562805
 20
3109.61894166
 0
VERTEX
 8
VUE_1
 10
-80.00152277
 20
3109.12989282
 0
VERTEX
 8
VUE_1
 10
-80.50980009
 20
3108.63225536
 0
VERTEX
 8
VUE_1
 10
-81.01012990
 20
3108.12606649
 0
VERTEX
 8
VUE_1
 10
-81.50218207
 20
3107.61136345
 0
VERTEX
 8
VUE_1
 10
-81.98562649
 20
3107.08818347
 0
VERTEX
 8
VUE_1
 10
-82.46013303
 20
3106.55656378
 0
VERTEX
 8
VUE_1
 10
-82.92537156
 20
3106.01654160
 0
VERTEX
 8
VUE_1
 10
-83.38101198
 20
3105.46815418
 0
VERTEX
 8
VUE_1
 10
-83.82672416
 20
3104.91143872
 0
VERTEX
 8
VUE_1
 10
-84.26217798
 20
3104.34643248
 0
VERTEX
 8
VUE_1
 10
-84.68704331
 20
3103.77317267
 0
VERTEX
 8
VUE_1
 10
-85.10099004
 20
3103.19169652
 0
VERTEX
 8
VUE_1
 10
-85.50368805
 20
3102.60204126
 0
VERTEX
 8
VUE_1
 10
-85.89480722
 20
3102.00424413
 0
VERTEX
 8
VUE_1
 10
-86.27401742
 20
3101.39834235
 0
VERTEX
 8
VUE_1
 10
-86.64098854
 20
3100.78437314
 0
VERTEX
 8
VUE_1
 10
-86.99539045
 20
3100.16237375
 0
VERTEX
 8
VUE_1
 10
-87.33689303
 20
3099.53238140
 0
SEQEND
 0
POLYLINE
 8
VUE_1
 66
1
 0
VERTEX
 8
VUE_1
 10
-87.33689303
 20
3099.53238140
 0
VERTEX
 8
VUE_1
 10
-87.64223386
 20
3098.94012220
 0
VERTEX
 8
VUE_1
 10
-87.93574470
 20
3098.34131314
 0
VERTEX
 8
VUE_1
 10
-88.21700986
 20
3097.73626854
 0
VERTEX
 8
VUE_1
 10
-88.48561362
 20
3097.12530270
 0
VERTEX
 8
VUE_1
 10
-88.74114028
 20
3096.50872991
 0
VERTEX
 8
VUE_1
 10
-88.98317413
 20
3095.88686449
 0
VERTEX
 8
VUE_1
 10
-89.21129946
 20
3095.26002073
 0
VERTEX
 8
VUE_1
 10
-89.42510058
 20
3094.62851294
 0
VERTEX
 8
VUE_1
 10
-89.62416176
 20
3093.99265542
 0
VERTEX
 8
VUE_1
 10
-89.80806731
 20
3093.35276247
 0
VERTEX
 8
VUE_1
 10
-89.97640153
 20
3092.70914840
 0
VERTEX
 8
VUE_1
 10
-90.12874869
 20
3092.06212750
 0
VERTEX
 8
VUE_1
 10
-90.26469311
 20
3091.41201409
 0
VERTEX
 8
VUE_1
 10
-90.38381906
 20
3090.75912245
 0
VERTEX
 8
VUE_1
 10
-90.48571085
 20
3090.10376690
 0
VERTEX
 8
VUE_1
 10
-90.56995277
 20
3089.44626173
 0
VERTEX
 8
VUE_1
 10
-90.63612911
 20
3088.78692126
 0
VERTEX
 8
VUE_1
 10
-90.68382416
 20
3088.12605978
 0
VERTEX
 8
VUE_1
 10
-90.71262222
 20
3087.46399159
 0
VERTEX
 8
VUE_1
 10
-90.72210759
 20
3086.80103099
 0
SEQEND
 0
POLYLINE
 8
VUE_1
 66
1
 0
VERTEX
 8
VUE_1
 10
-90.72210759
 20
3086.80103099
 0
VERTEX
 8
VUE_1
 10
-90.70422696
 20
3085.91460006
 0
VERTEX
 8
VUE_1
 10
-90.65195641
 20
3085.02816494
 0
VERTEX
 8
VUE_1
 10
-90.56611242
 20
3084.14275307
 0
VERTEX
 8
VUE_1
 10
-90.44751146
 20
3083.25939193
 0
VERTEX
 8
VUE_1
 10
-90.29696999
 20
3082.37910896
 0
VERTEX
 8
VUE_1
 10
-90.11530449
 20
3081.50293162
 0
VERTEX
 8
VUE_1
 10
-89.90333142
 20
3080.63188738
 0
VERTEX
 8
VUE_1
 10
-89.66186725
 20
3079.76700368
 0
VERTEX
 8
VUE_1
 10
-89.39172845
 20
3078.90930798
 0
VERTEX
 8
VUE_1
 10
-89.09373149
 20
3078.05982775
 0
VERTEX
 8
VUE_1
 10
-88.76869284
 20
3077.21959043
 0
VERTEX
 8
VUE_1
 10
-88.41742897
 20
3076.38962349
 0
VERTEX
 8
VUE_1
 10
-88.04075635
 20
3075.57095439
 0
VERTEX
 8
VUE_1
 10
-87.63949144
 20
3074.76461057
 0
VERTEX
 8
VUE_1
 10
-87.21445072
 20
3073.97161949
 0
VERTEX
 8
VUE_1
 10
-86.76645065
 20
3073.19300862
 0
VERTEX
 8
VUE_1
 10
-86.29630770
 20
3072.42980541
 0
VERTEX
 8
VUE_1
 10
-85.80483835
 20
3071.68303731
 0
VERTEX
 8
VUE_1
 10
-85.29285906
 20
3070.95373179
 0
VERTEX
 8
VUE_1
 10
-84.76118630
 20
3070.24291630
 0
SEQEND
 0
POLYLINE
 8
VUE_1
 66
1
 0
VERTEX
 8
VUE_1
 10
-84.76118630
 20
3070.24291630
 0
VERTEX
 8
VUE_1
 10
-84.31127817
 20
3069.67455315
 0
VERTEX
 8
VUE_1
 10
-83.84929573
 20
3069.11861856
 0
VERTEX
 8
VUE_1
 10
-83.37584872
 20
3068.57442670
 0
VERTEX
 8
VUE_1
 10
-82.89154686
 20
3068.04129172
 0
VERTEX
 8
VUE_1
 10
-82.39699987
 20
3067.51852781
 0
VERTEX
 8
VUE_1
 10
-81.89281748
 20
3067.00544913
 0
VERTEX
 8
VUE_1
 10
-81.37960942
 20
3066.50136984
 0
VERTEX
 8
VUE_1
 10
-80.85798540
 20
3066.00560412
 0
VERTEX
 8
VUE_1
 10
-80.32855516
 20
3065.51746613
 0
VERTEX
 8
VUE_1
 10
-79.79192841
 20
3065.03627005
 0
VERTEX
 8
VUE_1
 10
-79.24871489
 20
3064.56133003
 0
VERTEX
 8
VUE_1
 10
-78.69952432
 20
3064.09196025
 0
VERTEX
 8
VUE_1
 10
-78.14496642
 20
3063.62747488
 0
VERTEX
 8
VUE_1
 10
-77.58565092
 20
3063.16718808
 0
VERTEX
 8
VUE_1
 10
-77.02218754
 20
3062.71041402
 0
VERTEX
 8
VUE_1
 10
-76.45518602
 20
3062.25646687
 0
VERTEX
 8
VUE_1
 10
-75.88525606
 20
3061.80466080
 0
VERTEX
 8
VUE_1
 10
-75.31300741
 20
3061.35430997
 0
VERTEX
 8
VUE_1
 10
-74.73904978
 20
3060.90472856
 0
VERTEX
 8
VUE_1
 10
-74.16399290
 20
3060.45523073
 0
SEQEND
 0
POLYLINE
 8
VUE_1
 66
1
 0
VERTEX
 8
VUE_1
 10
-74.16399290
 20
3060.45523073
 0
VERTEX
 8
VUE_1
 10
-73.49031483
 20
3059.92880510
 0
VERTEX
 8
VUE_1
 10
-72.81562434
 20
3059.40256170
 0
VERTEX
 8
VUE_1
 10
-72.13957926
 20
3058.87750732
 0
VERTEX
 8
VUE_1
 10
-71.46183742
 20
3058.35464877
 0
VERTEX
 8
VUE_1
 10
-70.78205664
 20
3057.83499285
 0
VERTEX
 8
VUE_1
 10
-70.09989474
 20
3057.31954636
 0
VERTEX
 8
VUE_1
 10
-69.41500956
 20
3056.80931610
 0
VERTEX
 8
VUE_1
 10
-68.72705891
 20
3056.30530888
 0
VERTEX
 8
VUE_1
 10
-68.03570063
 20
3055.80853150
 0
VERTEX
 8
VUE_1
 10
-67.34059253
 20
3055.31999076
 0
VERTEX
 8
VUE_1
 10
-66.64139244
 20
3054.84069345
 0
VERTEX
 8
VUE_1
 10
-65.93775819
 20
3054.37164639
 0
VERTEX
 8
VUE_1
 10
-65.22934760
 20
3053.91385638
 0
VERTEX
 8
VUE_1
 10
-64.51581850
 20
3053.46833021
 0
VERTEX
 8
VUE_1
 10
-63.79682871
 20
3053.03607469
 0
VERTEX
 8
VUE_1
 10
-63.07203605
 20
3052.61809662
 0
VERTEX
 8
VUE_1
 10
-62.34109836
 20
3052.21540280
 0
VERTEX
 8
VUE_1
 10
-61.60367346
 20
3051.82900004
 0
VERTEX
 8
VUE_1
 10
-60.85941917
 20
3051.45989513
 0
VERTEX
 8
VUE_1
 10
-60.10799331
 20
3051.10909488
 0
SEQEND
 0
POLYLINE
 8
VUE_1
 66
1
 0
VERTEX
 8
VUE_1
 10
-60.10799331
 20
3051.10909488
 0
VERTEX
 8
VUE_1
 10
-58.80630952
 20
3050.55323507
 0
VERTEX
 8
VUE_1
 10
-57.48401931
 20
3050.05029270
 0
VERTEX
 8
VUE_1
 10
-56.14247579
 20
3049.59674589
 0
VERTEX
 8
VUE_1
 10
-54.78303204
 20
3049.18907276
 0
VERTEX
 8
VUE_1
 10
-53.40704117
 20
3048.82375143
 0
VERTEX
 8
VUE_1
 10
-52.01585627
 20
3048.49726004
 0
VERTEX
 8
VUE_1
 10
-50.61083043
 20
3048.20607671
 0
VERTEX
 8
VUE_1
 10
-49.19331675
 20
3047.94667955
 0
VERTEX
 8
VUE_1
 10
-47.76466833
 20
3047.71554670
 0
VERTEX
 8
VUE_1
 10
-46.32623825
 20
3047.50915628
 0
VERTEX
 8
VUE_1
 10
-44.87937962
 20
3047.32398641
 0
VERTEX
 8
VUE_1
 10
-43.42544553
 20
3047.15651522
 0
VERTEX
 8
VUE_1
 10
-41.96578907
 20
3047.00322083
 0
VERTEX
 8
VUE_1
 10
-40.50176335
 20
3046.86058137
 0
VERTEX
 8
VUE_1
 10
-39.03472145
 20
3046.72507496
 0
VERTEX
 8
VUE_1
 10
-37.56601647
 20
3046.59317973
 0
VERTEX
 8
VUE_1
 10
-36.09700151
 20
3046.46137380
 0
VERTEX
 8
VUE_1
 10
-34.62902965
 20
3046.32613529
 0
VERTEX
 8
VUE_1
 10
-33.16345401
 20
3046.18394233
 0
VERTEX
 8
VUE_1
 10
-31.70162766
 20
3046.03127304
 0
SEQEND
 0
POLYLINE
 8
VUE_1
 66
1
 0
VERTEX
 8
VUE_1
 10
-31.70162766
 20
3046.03127304
 0
VERTEX
 8
VUE_1
 10
-29.97464744
 20
3045.83330343
 0
VERTEX
 8
VUE_1
 10
-28.25422158
 20
3045.61856638
 0
VERTEX
 8
VUE_1
 10
-26.53973161
 20
3045.38997281
 0
VERTEX
 8
VUE_1
 10
-24.83055907
 20
3045.15043364
 0
VERTEX
 8
VUE_1
 10
-23.12608549
 20
3044.90285977
 0
VERTEX
 8
VUE_1
 10
-21.42569240
 20
3044.65016211
 0
VERTEX
 8
VUE_1
 10
-19.72876133
 20
3044.39525159
 0
VERTEX
 8
VUE_1
 10
-18.03467383
 20
3044.14103911
 0
VERTEX
 8
VUE_1
 10
-16.34281140
 20
3043.89043558
 0
VERTEX
 8
VUE_1
 10
-14.65255560
 20
3043.64635192
 0
VERTEX
 8
VUE_1
 10
-12.96328796
 20
3043.41169904
 0
VERTEX
 8
VUE_1
 10
-11.27438999
 20
3043.18938785
 0
VERTEX
 8
VUE_1
 10
-9.58524325
 20
3042.98232926
 0
VERTEX
 8
VUE_1
 10
-7.89522925
 20
3042.79343419
 0
VERTEX
 8
VUE_1
 10
-6.20372954
 20
3042.62561356
 0
VERTEX
 8
VUE_1
 10
-4.51012564
 20
3042.48177826
 0
VERTEX
 8
VUE_1
 10
-2.81379908
 20
3042.36483922
 0
VERTEX
 8
VUE_1
 10
-1.11413141
 20
3042.27770735
 0
VERTEX
 8
VUE_1
 10
0.58949585
 20
3042.22329356
 0
VERTEX
 8
VUE_1
 10
2.29770117
 20
3042.20450875
 0
SEQEND
 0
POLYLINE
 8
VUE_1
 66
1
 0
VERTEX
 8
VUE_1
 10
218.61511481
 20
3084.79857111
 0
VERTEX
 8
VUE_1
 10
218.59996779
 20
3083.97139239
 0
VERTEX
 8
VUE_1
 10
218.55521225
 20
3083.14538285
 0
VERTEX
 8
VUE_1
 10
218.48187644
 20
3082.32095211
 0
VERTEX
 8
VUE_1
 10
218.38098864
 20
3081.49850980
 0
VERTEX
 8
VUE_1
 10
218.25357712
 20
3080.67846556
 0
VERTEX
 8
VUE_1
 10
218.10067013
 20
3079.86122901
 0
VERTEX
 8
VUE_1
 10
217.92329596
 20
3079.04720979
 0
VERTEX
 8
VUE_1
 10
217.72248286
 20
3078.23681751
 0
VERTEX
 8
VUE_1
 10
217.49925910
 20
3077.43046182
 0
VERTEX
 8
VUE_1
 10
217.25465295
 20
3076.62855234
 0
VERTEX
 8
VUE_1
 10
216.98969268
 20
3075.83149871
 0
VERTEX
 8
VUE_1
 10
216.70540656
 20
3075.03971054
 0
VERTEX
 8
VUE_1
 10
216.40282285
 20
3074.25359748
 0
VERTEX
 8
VUE_1
 10
216.08296981
 20
3073.47356915
 0
VERTEX
 8
VUE_1
 10
215.74687572
 20
3072.70003517
 0
VERTEX
 8
VUE_1
 10
215.39556885
 20
3071.93340519
 0
VERTEX
 8
VUE_1
 10
215.03007745
 20
3071.17408884
 0
VERTEX
 8
VUE_1
 10
214.65142980
 20
3070.42249573
 0
VERTEX
 8
VUE_1
 10
214.26065417
 20
3069.67903550
 0
VERTEX
 8
VUE_1
 10
213.85877881
 20
3068.94411778
 0
SEQEND
 0
POLYLINE
 8
VUE_1
 66
1
 0
VERTEX
 8
VUE_1
 10
213.85877881
 20
3068.94411778
 0
VERTEX
 8
VUE_1
 10
213.27337073
 20
3067.92026489
 0
VERTEX
 8
VUE_1
 10
212.66848868
 20
3066.91343287
 0
VERTEX
 8
VUE_1
 10
212.04478430
 20
3065.92275371
 0
VERTEX
 8
VUE_1
 10
211.40290919
 20
3064.94735942
 0
VERTEX
 8
VUE_1
 10
210.74351497
 20
3063.98638196
 0
VERTEX
 8
VUE_1
 10
210.06725327
 20
3063.03895335
 0
VERTEX
 8
VUE_1
 10
209.37477570
 20
3062.10420557
 0
VERTEX
 8
VUE_1
 10
208.66673388
 20
3061.18127062
 0
VERTEX
 8
VUE_1
 10
207.94377942
 20
3060.26928048
 0
VERTEX
 8
VUE_1
 10
207.20656395
 20
3059.36736714
 0
VERTEX
 8
VUE_1
 10
206.45573909
 20
3058.47466261
 0
VERTEX
 8
VUE_1
 10
205.69195645
 20
3057.59029887
 0
VERTEX
 8
VUE_1
 10
204.91586764
 20
3056.71340791
 0
VERTEX
 8
VUE_1
 10
204.12812430
 20
3055.84312172
 0
VERTEX
 8
VUE_1
 10
203.32937803
 20
3054.97857231
 0
VERTEX
 8
VUE_1
 10
202.52028046
 20
3054.11889165
 0
VERTEX
 8
VUE_1
 10
201.70148320
 20
3053.26321174
 0
VERTEX
 8
VUE_1
 10
200.87363787
 20
3052.41066458
 0
VERTEX
 8
VUE_1
 10
200.03739609
 20
3051.56038215
 0
VERTEX
 8
VUE_1
 10
199.19340948
 20
3050.71149644
 0
SEQEND
 0
POLYLINE
 8
VUE_1
 66
1
 0
VERTEX
 8
VUE_1
 10
199.19340948
 20
3050.71149644
 0
VERTEX
 8
VUE_1
 10
198.27282193
 20
3049.79498306
 0
VERTEX
 8
VUE_1
 10
197.34347525
 20
3048.88175488
 0
VERTEX
 8
VUE_1
 10
196.40490031
 20
3047.97447921
 0
VERTEX
 8
VUE_1
 10
195.45662800
 20
3047.07582332
 0
VERTEX
 8
VUE_1
 10
194.49818917
 20
3046.18845451
 0
VERTEX
 8
VUE_1
 10
193.52911471
 20
3045.31504007
 0
VERTEX
 8
VUE_1
 10
192.54893549
 20
3044.45824727
 0
VERTEX
 8
VUE_1
 10
191.55718239
 20
3043.62074342
 0
VERTEX
 8
VUE_1
 10
190.55338627
 20
3042.80519579
 0
VERTEX
 8
VUE_1
 10
189.53707802
 20
3042.01427168
 0
VERTEX
 8
VUE_1
 10
188.50778850
 20
3041.25063837
 0
VERTEX
 8
VUE_1
 10
187.46504859
 20
3040.51696314
 0
VERTEX
 8
VUE_1
 10
186.40838916
 20
3039.81591330
 0
VERTEX
 8
VUE_1
 10
185.33734110
 20
3039.15015612
 0
VERTEX
 8
VUE_1
 10
184.25143526
 20
3038.52235889
 0
VERTEX
 8
VUE_1
 10
183.15020253
 20
3037.93518891
 0
VERTEX
 8
VUE_1
 10
182.03317378
 20
3037.39131345
 0
VERTEX
 8
VUE_1
 10
180.89987988
 20
3036.89339980
 0
VERTEX
 8
VUE_1
 10
179.74985171
 20
3036.44411526
 0
VERTEX
 8
VUE_1
 10
178.58262015
 20
3036.04612711
 0
SEQEND
 0
POLYLINE
 8
VUE_1
 66
1
 0
VERTEX
 8
VUE_1
 10
178.58262015
 20
3036.04612711
 0
VERTEX
 8
VUE_1
 10
177.43522818
 20
3035.71104449
 0
VERTEX
 8
VUE_1
 10
176.27247767
 20
3035.42334552
 0
VERTEX
 8
VUE_1
 10
175.09559719
 20
3035.17976460
 0
VERTEX
 8
VUE_1
 10
173.90581529
 20
3034.97703611
 0
VERTEX
 8
VUE_1
 10
172.70436054
 20
3034.81189444
 0
VERTEX
 8
VUE_1
 10
171.49246147
 20
3034.68107398
 0
VERTEX
 8
VUE_1
 10
170.27134667
 20
3034.58130912
 0
VERTEX
 8
VUE_1
 10
169.04224467
 20
3034.50933424
 0
VERTEX
 8
VUE_1
 10
167.80638405
 20
3034.46188373
 0
VERTEX
 8
VUE_1
 10
166.56499335
 20
3034.43569199
 0
VERTEX
 8
VUE_1
 10
165.31930113
 20
3034.42749339
 0
VERTEX
 8
VUE_1
 10
164.07053596
 20
3034.43402234
 0
VERTEX
 8
VUE_1
 10
162.81992639
 20
3034.45201321
 0
VERTEX
 8
VUE_1
 10
161.56870097
 20
3034.47820039
 0
VERTEX
 8
VUE_1
 10
160.31808827
 20
3034.50931827
 0
VERTEX
 8
VUE_1
 10
159.06931684
 20
3034.54210125
 0
VERTEX
 8
VUE_1
 10
157.82361524
 20
3034.57328370
 0
VERTEX
 8
VUE_1
 10
156.58221203
 20
3034.59960002
 0
VERTEX
 8
VUE_1
 10
155.34633577
 20
3034.61778459
 0
VERTEX
 8
VUE_1
 10
154.11721500
 20
3034.62457181
 0
SEQEND
 0
POLYLINE
 8
VUE_1
 66
1
 0
VERTEX
 8
VUE_1
 10
1443.76799615
 20
3076.07862178
 0
VERTEX
 8
VUE_1
 10
1186.64477291
 20
3071.95798574
 0
VERTEX
 8
VUE_1
 10
1155.03616465
 20
3071.95798574
 0
VERTEX
 8
VUE_1
 10
1133.96375914
 20
3075.03104488
 0
VERTEX
 8
VUE_1
 10
1118.35534148
 20
3078.06042844
 0
SEQEND
 0
POLYLINE
 8
VUE_1
 66
1
 0
VERTEX
 8
VUE_1
 10
1443.76799615
 20
3076.07862178
 0
VERTEX
 8
VUE_1
 10
-241.58493035
 20
3091.51089473
 0
SEQEND
 0
POLYLINE
 8
VUE_1
 66
1
 0
VERTEX
 8
VUE_1
 10
390.97275354
 20
1940.10704044
 0
VERTEX
 8
VUE_1
 10
364.47608548
 20
1940.10704044
 0
VERTEX
 8
VUE_1
 10
320.47997748
 20
1135.49353378
 0
SEQEND
 0
POINT
 8
VUE_1
 10
453.65738548
 20
3036.04612711
 0
POINT
 8
VUE_1
 10
342.15606539
 20
1086.62645088
 0
POLYLINE
 8
VUE_1
 66
1
 0
VERTEX
 8
VUE_1
 10
267.37524624
 20
1086.62645018
 0
VERTEX
 8
VUE_1
 10
293.63151976
 20
3086.61007769
 0
SEQEND
 0
POINT
 8
VUE_1
 10
293.63151976
 20
3086.61007769
 0
POINT
 8
VUE_1
 10
1187.83734302
 20
3078.42210226
 0
POLYLINE
 8
VUE_1
 66
1
 0
VERTEX
 8
VUE_1
 10
456.46421958
 20
3085.11906733
 0
VERTEX
 8
VUE_1
 10
342.15606519
 20
1086.62644727
 0
VERTEX
 8
VUE_1
 10
250.72038281
 20
1099.02829111
 0
VERTEX
 8
VUE_1
 10
238.43318148
 20
1102.59554311
 0
VERTEX
 8
VUE_1
 10
230.90231615
 20
1110.91913111
 0
SEQEND
 0
POLYLINE
 8
VUE_1
 66
1
 0
VERTEX
 8
VUE_1
 10
229.98483666
 20
1086.62644983
 0
VERTEX
 8
VUE_1
 10
212.24641596
 20
3087.35529675
 0
SEQEND
 0
POLYLINE
 8
VUE_1
 66
1
 0
VERTEX
 8
VUE_1
 10
229.71323215
 20
1117.26091244
 0
VERTEX
 8
VUE_1
 10
230.90231615
 20
1110.91913111
 0
SEQEND
 0
TEXT
 8
VUE_1
 62
4
 10
873.28298122
 20
2065.46173437
 40
50.00000000
 41
1.00000000
 1
ALPINA MULTIPLEX
 7
STANDARD
 0
TEXT
 8
VUE_1
 62
4
 10
934.69798403
 20
1823.87777057
 40
50.00000000
 41
0.48000000
 1
S aile = 71 dm
 7
STANDARD
 0
TEXT
 8
VUE_1
 62
4
 10
925.94288612
 20
1769.59616351
 40
50.00000000
 41
0.53125000
 1
Sstab = 7,68 dm
 7
STANDARD
 0
TEXT
 8
VUE_1
 62
4
 10
917.18778821
 20
1689.82883061
 40
50.00000000
 41
0.58750000
 1
BL = 975
 7
STANDARD
 0
POLYLINE
 8
VUE_1
 66
1
 0
VERTEX
 8
VUE_1
 10
-373.99114450
 20
3528.32781683
 0
VERTEX
 8
VUE_1
 10
-373.99114450
 20
884.16822866
 0
VERTEX
 8
VUE_1
 10
1942.79630419
 20
884.16822866
 0
VERTEX
 8
VUE_1
 10
1942.79630419
 20
3528.32781683
 0
VERTEX
 8
VUE_1
 10
-373.99114450
 20
3528.32781683
 0
SEQEND
 0
POINT
 8
VUE_1
 10
212.24641596
 20
1086.62644966
 0
TEXT
 8
VUE_1
 62
4
 10
973.22041484
 20
1428.14734494
 40
50.00000000
 41
0.42857143
 1
Profils aile :
 7
STANDARD
 0
TEXT
 8
VUE_1
 62
4
 10
955.71021902
 20
1359.85758122
 40
50.00000000
 41
0.55833333
 1
Ritz 2-30-14
 7
STANDARD
 0
TEXT
 8
VUE_1
 62
4
 10
959.21225818
 20
1285.34330707
 40
50.00000000
 41
0.55833333
 1
Ritz 2-30-12
 7
STANDARD
 0
TEXT
 8
VUE_1
 62
4
 10
955.71021902
 20
1208.29844544
 40
50.00000000
 41
0.55833333
 1
Ritz 2-30-15
 7
STANDARD
 0
TEXT
 8
VUE_1
 62
4
 10
929.44492528
 20
1118.99644674
 40
50.00000000
 41
0.53695652
 1
Profil stab : NACA 0009
 7
STANDARD
 0
ENDSEC
 0
EOF
